Bach Suite Cello No.1 Minuet 2

(/) Slide Up  (\) Slide Down  (h) Hammer On  (p) Pull Off  (b) Bend (r) Release (v) Vibrato


E|-------------------------------------------------------------------------------
B|-------------------------------------------------------------------------------
G|-3-2-3---------2---------------------------3-2-3---------2---------------------
D|-------0-1-------0-5-4-5-----1-0---0-5-4-7-------0-1-------0-5-4-5-----2-0-5-4-
A|-------------------------1-3-----0---------------------------------1-3---------
E|-----------3-1---------------------------------------3-1-----------------------



E|---------------------------------------------------------------------------------------------
B|-------1-4-3-1-----------------3-1-----------------------------------3-1-4-3-----------------
G|-----2---------3-2-3-0-----0-3-----3-2-0-2---------3-2-3-----0-3-2-3---------3---2-3---------
D|-0-4---------------------2-----------------3-1-0-3-------0-1-------------------3-----3-0-3---
A|-----------------------3-------------------------------------------------------------------1-
E|---------------------------------------------------------------------------------------------



E|-----------------------------------------------------------------------------------
B|-----------------1-3-4-------------------1-3---------------------------------------
G|-------1-0-----0-------------0---------3---------------------0-2-3-0---3-2-0-----0-
D|---0-3-----3-1-------------1---3-1-0-3-------------1-0-----0-----------------0-4-0-
A|-2---------------------0-3---------------------0-3-----3-1-----------3-----------1-
E|---------------------------------------------2-----------------------------------3-
http://www.guitartabcreator.com
Guitar Tab Creator is intended to store guitar tab created through the tool. It currently does not support in-line text editing. Any text you place in here will be lost. If you need to comment on your tab, please use the "Tab Notes" section located below.