Bach Suite Cello No.1 Minuet 1

(/) Slide Up  (\) Slide Down  (h) Hammer On  (p) Pull Off  (b) Bend (r) Release (v) Vibrato


E|-----------------------------------3------------------------------------------------
B|-----0---0-1-0-------------1-----3-0-------1-0-1-3-1-0------------------------------
G|-------2-------2-0---0---0---2-----0-2-----------------2-0-------0-2-0--------------
D|---0---------------4---2-------4---0-----4-----------------4-2-4-------4-2-4-0---0--
A|-----------------------------------2---0---------------------------------------0----
E|-3---------------------------------3------------------------------------------------



E|---------------------------------------------------------------------------------------
B|-----------0---------------------0-3---3-1-0-1-------1-0---0-------1-0-----------------
G|-----2-0-2---2-0-------------1-2-------------------2-----2-------2-----2-0-------------
D|-0-4-------------4-2-0-4---0-------------------1-4-----------2-------------4-2---1-----
A|-------------------------2-----------0-----------------------------------------2-------
E|---------------------------------------------------------------3-------------------0---



E|-------------------------------------------------------------------------------------------------
B|-------------------------------------------------------------1-0-1-3-----0-3-1-3-5-3-------------
G|-----------0-----------------------2-----0-0---------------2-----------0---------------0-------0-
D|-2-0-----0---0-2-3-3-0-2---------2---2-4-----2-4-0-0---0-4-----------2---------------4-----0-4---
A|-----3-2-----------------3-3-2-4---------------------0-----------------------------------2-------
E|-------------------------------------------------------------------------------------------------
http://www.guitartabcreator.com
Guitar Tab Creator is intended to store guitar tab created through the tool. It currently does not support in-line text editing. Any text you place in here will be lost. If you need to comment on your tab, please use the "Tab Notes" section located below.