You Reign

(/) Slide Up  (\) Slide Down  (h) Hammer On  (p) Pull Off  (b) Bend (r) Release (v) Vibrato

E|-----3-----3-----------------3-----3-----3-----3-----5-----5-----5-----5-----
B|-----3-----3-----3-----3-----3-----3-----3-----3-----5-----5-----5-----5-----
G|-----------------------2-----------------------------------------------------
D|-----------------2-----------------------------------------------------------
A|-----2-----3-----2-----------3-----3-----3-----3-----5-----5-----5-----5-----
E|-----3-----------------------------------------------------------------------



E|---------------------------------------------------------------------------
B|--------------------------12------------12------------12------------12-----
G|-----12-----12-----12------------12------------12------------12------------
D|---------------------------------------------------------------------------
A|---------------------------------------------------------------------------
E|---------------------------------------------------------------------------



E|---------------------------------------------------------------------------
B|--------------------------12------------12-----13-----13-----12------------
G|-----12-----12-----12------------12---------------------------------12-----
D|---------------------------------------------------------------------------
A|---------------------------------------------------------------------------
E|---------------------------------------------------------------------------



E|-------------------------------------------------------------------------
B|-------------------------------------------------------------------------
G|--12--12--12--12--12--12--12--12--12--12--12--12/14--14--14--14--14--14--
D|-------------------------------------------------------------------------
A|-------------------------------------------------------------------------
E|-------------------------------------------------------------------------



E|-----------------------------3-----
B|-----3-----3-----3-----1-----3-----
G|-----2-----------2-----------------
D|-----------2-----------3-----------
A|-----------2-----------------3-----
E|-----------------------------------



E|----------------------------------------------------------------------------------
B|--------------12------12------12------12--------------12------12--13--13--12------
G|--12--12--12------12------12------12------12--12--12------12------------------12--
D|----------------------------------------------------------------------------------
A|----------------------------------------------------------------------------------
E|----------------------------------------------------------------------------------



E|----------------------------------------------------------------------------------
B|--------------12------12------12------12--------------12------12--13--13--12------
G|--12--12--12------12------12------12------12--12--12------12------------------12--
D|----------------------------------------------------------------------------------
A|----------------------------------------------------------------------------------
E|----------------------------------------------------------------------------------



E|--15--15--14--14--12--12--------------------------------------------------------------------------
B|--------------------------15--15--13--13--12--12----------------------12------12--13--13--12------
G|--------------------------------------------------14--14--12--12--12------12------------------12--
D|--------------------------------------------------------------------------------------------------
A|--------------------------------------------------------------------------------------------------
E|--------------------------------------------------------------------------------------------------



E|----------------------------------------------------------------------------------
B|--------------12------12------12------12--------------12------12--13--13--12------
G|--12--12--12------12------12------12------12--12--12------12------------------12--
D|----------------------------------------------------------------------------------
A|----------------------------------------------------------------------------------
E|----------------------------------------------------------------------------------



E|-----------3--------------------------------10-----10-----10-----10---------
B|--3--3--3--3--3--3--3--3-------8--10/12--8------8------8------8------8v--8--
G|--2--2--2--------2--2--2--7/9-----------------------------------------------
D|-----------2----------------------------------------------------------------
A|-----------2--3-------------------------------------------------------------
E|----------------------------------------------------------------------------
http://www.guitartabcreator.com
Guitar Tab Creator is intended to store guitar tab created through the tool. It currently does not support in-line text editing. Any text you place in here will be lost. If you need to comment on your tab, please use the "Tab Notes" section located below.