10000 Reason Matt Redman

(/) Slide Up  (\) Slide Down  (h) Hammer On  (p) Pull Off  (b) Bend (r) Release (v) Vibrato

E|----------12--12----------|--------------------|----------------------------------|--
B|--12--15----------15--12--|--------------------|----------------------------------|--
G|--------------------------|--14/16\14--12------|----------12--14/16--14--12--14v--|--
D|--------------------------|----------------14--|--12--14--------------------------|--
A|--------------------------|--------------------|----------------------------------|--
E|--------------------------|--------------------|----------------------------------|--



E|----------12--12----------|--12--14------------|---------------------------------|--
B|--12--15----------15--12--|----------12--------|---------------------------------|--
G|--------------------------|--------------------|----------12--14/16--14--12--12--|--
D|--------------------------|--------------------|--12--14-------------------------|--
A|--------------------------|--------------------|---------------------------------|--
E|--------------------------|--------------------|---------------------------------|--
http://www.guitartabcreator.com
Guitar Tab Creator is intended to store guitar tab created through the tool. It currently does not support in-line text editing. Any text you place in here will be lost. If you need to comment on your tab, please use the "Tab Notes" section located below.