Plug In Baby

(/) Slide Up  (\) Slide Down  (h) Hammer On  (p) Pull Off  (b) Bend (r) Release (v) Vibrato

Stave 1:

E|---------------------------------------------------
B|-----------------------------------7h8p7-----------
G|--------6--------6--7-----6--7--9---------9--7--6--
D|--8--9-----8--9--------9---------------------------
A|---------------------------------------------------
E|---------------------------------------------------

Stave 2:

E|--------------------------------------------------------------------------------------------------
B|--------------------------------7--7b8b7--6--7--6--7-----------------7--9b10b9--7--6--7-----------
G|-----6--7-----6--7--9--6--7--9------------------------7-----------7----------------------7--6--7--
D|--9--------9---------------------------------------------7-----7----------------------------------
A|------------------------------------------------------------9-------------------------------------
E|--------------------------------------------------------------------------------------------------

http://www.guitartabcreator.com
Guitar Tab Creator is intended to store guitar tab created through the tool. It currently does not support in-line text editing. Any text you place in here will be lost. If you need to comment on your tab, please use the "Tab Notes" section located below.