Knights of Cydonia

(/) Slide Up  (\) Slide Down  (h) Hammer On  (p) Pull Off  (b) Bend (r) Release (v) Vibrato

Stave 1:

E|--------------------------------------------------------------
B|--------------------------------------------------------------
G|--------------------------------------------------------------
D|--0h2--2--2--2--0h2--2--2--0h2--2--2--2--0h2--2--2--5p2p0-----
A|--------------------------------------------------------------
E|--------------------------------------------------------------

Stave 2:

E|---------------------------------------------------------------
B|---------------------------------------------------------------
G|---------------------------------------------------------------
D|---------------------------------------------------------------
A|--5p2--2--2--2--5p2--2--2--2--5p2--2--2--2--5p2--2--2--5h7--7--
E|---------------------------------------------------------------

Stave 3:

E|------------------------------------------------------------
B|------------------------------------------------------------
G|------------------------------------------------------------
D|------------------------------------------------------------
A|--7p0--0--0--0--7p0--0--0--0--7p0--0--0--0--7p0--0--2p0-----
E|---------------------------------------------------------3--

Stave 4:

E|---------------------------------------------------------------
B|---------------------------------------------------------------
G|---------------------------------------------------------------
D|---------------------------------------------------------0-----
A|----------------------------------------------------0h2--------
E|--3p0--0--0--0--3p0--0--0--0--3p0--0--0--0--3p0--0-------------

http://www.guitartabcreator.com
Guitar Tab Creator is intended to store guitar tab created through the tool. It currently does not support in-line text editing. Any text you place in here will be lost. If you need to comment on your tab, please use the "Tab Notes" section located below.