First solo

(/) Slide Up  (\) Slide Down  (h) Hammer On  (p) Pull Off  (b) Bend (r) Release (v) Vibrato
E|---------------------------------------------------------------------------------------------------
B|------------------7----------------7--12v-----------------------------12---------12----------------
G|--3\7v--7h9--9b7---------7h9--9b7----------11b9------11b9------11b11------11b11------11------------
D|---------------------9v--------------------------11--------11--------------------------------------
A|-----------------------------------------------------------------------------------------9---3-----
E|-----------------------------------------------------------------------------------------7/--1-----



E|----------------------------------------------------------------------------------------------------
B|----------------------------------------------------------------------------------------------------
G|----------------------------------------------------------------------------------------------------
D|----------------------------------------------------------------------------------------------------
A|-----------------------3-----------------------4-----------------------5-----6-----7-----10--11-----
E|--0--0--0--0--0--0--0--1--0--0--0--0--0--0--0--2--0--0--0--0--0--0--0--3--0--4--0--5--0--8---9------



E|----------14b14--|--9p5-----9p5-----9p5-----9p5-----9p5-----9p5-----11p7-----11p7-----11p7--------
B|-----------------|-------7-------7-------7-------7-------7-------7--------9--------9--------9-----
G|-----------------|--------------------------------------------------------------------------------
D|-----------------|--------------------------------------------------------------------------------
A|--12--13---------|--------------------------------------------------------------------------------
E|--10--11---------|--------------------------------------------------------------------------------



E|--12p7-----11p7-----11p7-----11p7-----11p7-----12p7-----11p7-----17p14------18p14------19p14------
B|--------9--------9--------9--------9--------9--------9--------9---------16---------16---------16--
G|--------------------------------------------------------------------------------------------------
D|--------------------------------------------------------------------------------------------------
A|--------------------------------------------------------------------------------------------------
E|--------------------------------------------------------------------------------------------------



E|--18p14------20b20--20--20--|----------------------------------------------------------------
B|---------16-----------------|--13--12--10--------------------------13--12--10----------------
G|----------------------------|--------------12--10--9---------------------------12--10--9-----
D|----------------------------|-------------------------12--10---------------------------------
A|----------------------------|---------------------------------12v----------------------------
E|----------------------------|----------------------------------------------------------------



E|---------------
B|---------------
G|---------------
D|--12--10-------
A|----------12v--
E|---------------
http://www.guitartabcreator.com
Guitar Tab Creator is intended to store guitar tab created through the tool. It currently does not support in-line text editing. Any text you place in here will be lost. If you need to comment on your tab, please use the "Tab Notes" section located below.