White Christmas Tabs

(/) Slide Up  (\) Slide Down  (h) Hammer On  (p) Pull Off  (b) Bend (r) Release (v) Vibrato
E|---------------------------------------------------
B|-----------------------------7--8--10--8--7--------
G|--4--5--4--2--4--5--6--7--9------------------9--7--
D|---------------------------------------------------
A|---------------------------------------------------
E|---------------------------------------------------



E|--------------------------------------------------------
B|-----------------5--------------------------------------
G|--------4--4--4-----7-----------7--5--4--5--4-----------
D|--5--7-----------------5--5--5-----------------7--5--7--
A|--------------------------------------------------------
E|--------------------------------------------------------



E|---------------------------------------------------
B|-----------------------------7--8--10--8--7--------
G|--4--5--4--2--4--5--6--7--9------------------9--7--
D|---------------------------------------------------
A|---------------------------------------------------
E|---------------------------------------------------



E|-----------------------------------------------------
B|-----------------5-----8--------------5--------------
G|--------4--4--4-----7-----------4--4-----7-----------
D|--5--7--------------------5--7--------------4--4--5--
A|-----------------------------------------------------
E|-----------------------------------------------------
http://www.guitartabcreator.com
Guitar Tab Creator is intended to store guitar tab created through the tool. It currently does not support in-line text editing. Any text you place in here will be lost. If you need to comment on your tab, please use the "Tab Notes" section located below.