Valetines Mayday rhythm guitar tab

Valentines Mayday Rhythm Guitar tab

Tuning: Standard

Chorus:
E|--------------------------------------------------------------------
B|--------------------------------------------------------------------
G|5555555555555555-2222222222222222-5555555555555555-2222222222222222-
D|5555555555555555-2222222222222222-5555555555555555-2222222222222222-
A|3333333333333333-0000000000000000-3333333333333333-0000000000000000-
E|--------------------------------------------------------------------

E|-----------------------------------------------------------------
B|-----------------------------------------------------------------
G|55555555-10101010-9999--55555555-10101010-9999--2222222222222222-
D|55555555-10101010-9999--55555555-10101010-9999--2222222222222222-
A|33333333-8-8-8-8--7777--33333333-8-8-8-8--7777--0000000000000000-
E|-----------------------------------------------------------------

E|-------------------------------------------------
B|-------------------------------------------------
G|55555555-77777777-55------55--55--22------22-----
D|55555555-77777777-55------55--55--22------22--55-
A|33333333-55555555-33------33--33--00------00--55-
E|----------------------------------------------33-

Pre-Chorus (Final only)

E|--------------------------------------------------------------------------------
B|--------------------------------------------------------------------------------
G|55555555-7777-9999--55555555-7777-9999--55555555-7777-9999--55555555-7777-9999--
D|55555555-7777-9999--55555555-7777-9999--55555555-7777-9999--55555555-7777-9999--
A|33333333-5555-7777--33333333-5555-7777--33333333-5555-7777--33333333-5555-7777--
E|--------------------------------------------------------------------------------

Final Chorus (Alternate)

E|--------------------------------------------------------------------
B|--------------------------------------------------------------------
G|5555555555555555-2222222222222222-5555555555555555-2222222222222222-
D|5555555555555555-2222222222222222-5555555555555555-2222222222222222-
A|3333333333333333-0000000000000000-3333333333333333-0000000000000000-
E|--------------------------------------------------------------------

E|-----------------------------------------------------------------
B|-----------------------------------------------------------------
G|55555555-10101010-9999--55555555-10101010-9999--2222222222222222-
D|55555555-10101010-9999--55555555-10101010-9999--2222222222222222-
A|33333333-8-8-8-8--7777--33333333-8-8-8-8--7777--0000000000000000-
E|-----------------------------------------------------------------

E|-------------------------------------------------
B|-------------------------------------------------
G|55555555-77777777-55------55--55--22------22-----
D|55555555-77777777-55------55--55--22------22--55-
A|33333333-55555555-33------33--33--00------00--55-
E|----------------------------------------------33-

E|------------------------------------------------------------------------------------------
B|------------------------------------------------------------------------------------------
G|55555555-7777-9999--55555555-7777-9999--55555555-10101010-9999--55555555-10101010-9999-55-
D|55555555-7777-9999--55555555-7777-9999--55555555-10101010-9999--55555555-10101010-9999-55-
A|33333333-5555-7777--33333333-5555-7777--33333333-8-8-8-8--7777--33333333-8-8-8-8--7777-33-
E|------------------------------------------------------------------------------------------
Guitar Tab Creator is intended to store guitar tab created through the tool. It currently does not support in-line text editing. Any text you place in here will be lost. If you need to comment on your tab, please use the "Tab Notes" section located below.