Our Lawyer Made Us Change The Name Of This Song So We Woulnd't Get Sued by Fall Out Boy (Rhythm Guitar Tab)


Artist: Fall Out Boy
Song: Our Lawyer Made Us Change The Name Of This Song So We Wouldnt Get Sued

Artist: Fall Out Boy
Song: Our Lawyer Made Us Change The Name Of This Song So We Wouldn't Get Sued
Tuning: Drop D

Tabbed By: Stephen Adams

H: hammer on
*: palm mute
/: slide


Intro Lead
e|------------------------------------------------|
B|------------------------------------------------|
G|-9/10101010101010--9/10101010—-9/10101010-------|
D|-x/x-x-x-x-x-x-x—--x/x-x-x-x---x/x-x-x-x--------|
A|-7/8-8-8-8-8-8-8—--7/8-8-8-8---7/8-8-8-8--------|
D|------------------------------------------------|


Intro Rhythm
e|------------------------------------------------|
B|------------------------------------------------|
G|------------------------------------------------|
D|-0000000000000000-88888888-55555555-------------|
A|-0000000000000000-88888888-55555555-------------|
D|-0000000000000000-88888888-55555555-------------|


Verse 1 "brothers and sisters..."
e|------------------------------------------------|
B|------------------------------------------------|
G|-2-2-2-2--2-2-2-2--2-2-2-2----------------------|
D|-3-3-3-3--3-3-3-3--3-3-3-3--55-77-88-10-10------|
A|-5-5-5-5--4-4-4-4--3-3-3-3--55-77-88-10-10------|
D|----------------------------55-77-88-10-10------|


Verse 1 Cont. Rhythm "we will leave you..."
e|------------------------------------------------|
B|------------------------------------------------|
G|------------------------------------------------|
D|-00-77-88-77-55-77-88-10-10---------------------|
A|-00-77-88-77-55-77-88-10-10---------------------|
D|-00-77-88-77-55-77-88-10-10---------------------|


Pre Chorus Rhythm "it's just past..."
e|------------------------------------------------|
B|------------------------------------------------|
G|-----------55555555-----------------------------|
D|-88888888--55555555--5555555555555555-----------|
A|-88888888--33333333--5555555555555555-----------|
D|-88888888------------5555555555555555-----------|


Pre Chorus Lead "it's just past..."
e|-------8------8---------------------------------|
B|-5h6-6---6--5---6-5-----------------------------|
G|------------------------------------------------|
D|------------------------------------------------|
A|------------------------------------------------|
D|------------------------------------------------|


Pre Chorus Rhythm Cont.
e|------------------------------------------------|
B|------------------------------------------------|
G|-----------55555555-----9/1010101010101010------|
D|-88888888--55555555—-5—-x/x-x-x-x-x-x-x-x-------|
A|-88888888--33333333--5—-7/8-8-8-8-8-8-8-8-------|
D|-88888888------------5--------------------------|


Chorus

e|------------------------------------------------|
B|------------------------------------------------|
G|------------------------------------------------|
D|-33-333-22-222-8888888888888888-----------------|
A|-33-333-33-333-8888888888888888-----------------|
D|-33-333-22-222-8888888888888888-----------------|


Chorus Cont.
e|------------------------------------------------|
B|------------------------------------------------|
G|------------------------------------------------|
D|-33-333-22-222-11111111-00000000----------------|
A|-33-333-33-333-11111111-00000000----------------|
D|-33-333-22-222-11111111-00000000----------------|


Chorus Cont.
e|------------------------------------------------|
B|------------------------------------------------|
G|----------55555555---------------------------5--|
D|-33333333-55555555-5555555555555555-33333333-5--|
A|-33333333-33333333-5555555555555555-33333333-3--|
D|-33333333----------5555555555555555-33333333----|


Pre Verse (palm mute)
e|------------------------------------------------|
B|------------------------------------------------|
G|------------------------------------------------|
D|-00-0000-0000-0000-00-88-8888-88-55-5555-55-----|
A|-00-0000-0000-0000-00-88-8888-88-55-5555-55-----|
D|-00-0000-0000-0000-00-88-8888-88-55-5555-55-----|


Verse 2 "brothers and sisters..."
e|------------------------------------------------|
B|------------------------------------------------|
G|------------------------------------------------|
D|-0-0-0-0-0-0-0-0-0-0-0-0--55-77-88-10-10--------|
A|-0-0-0-0-0-0-0-0-0-0-0-0--55-77-88-10-10--------|
D|-0-0-0-0-0-0-0-0-0-0-0-0--55-77-88-10-10--------|


Verse 2 Cont. "were friends when..."
e|------------------------------------------------|
B|------------------------------------------------|
G|------------------------------------------------|
D|-00-77-88-77-55-77-88-10-10---------------------|
A|-00-77-88-77-55-77-88-10-10---------------------|
D|-00-77-88-77-55-77-88-10-10---------------------|


Pre Chorus Rhythm "it's just past..."
e|------------------------------------------------|
B|------------------------------------------------|
G|-----------55555555-----------------------------|
D|-88888888--55555555--5555555555555555-----------|
A|-88888888--33333333--5555555555555555-----------|
D|-88888888------------5555555555555555-----------|


Pre Chorus Lead "it's just past..."
e|-------8------8---------------------------------|
B|-5h6-6---6--5---6-5-----------------------------|
G|------------------------------------------------|
D|------------------------------------------------|
A|------------------------------------------------|
D|------------------------------------------------|


Pre Chorus Rhythm Cont.




e|------------------------------------------------|
B|------------------------------------------------|
G|-----------55555555-----------------------------|
D|-88888888--55555555—-5—-55-5--------------------|
A|-88888888--33333333--5—-55-5--------------------|
D|-88888888------------5--55-5--------------------|
**


Chorus
e|------------------------------------------------|
B|------------------------------------------------|
G|------------------------------------------------|
D|-33-333-22-222-8888888888888888-----------------|
A|-33-333-33-333-8888888888888888-----------------|
D|-33-333-22-222-8888888888888888-----------------|


Chorus Cont.
e|------------------------------------------------|
B|------------------------------------------------|
G|------------------------------------------------|
D|-33-333-22-222-11111111-00000000----------------|
A|-33-333-33-333-11111111-00000000----------------|
D|-33-333-22-222-11111111-00000000----------------|


Chorus Cont.
e|------------------------------------------------|
B|------------------------------------------------|
G|----------55555555---------------------------5--|
D|-33333333-55555555-5555555555555555-33333333-5--|
A|-33333333-33333333-5555555555555555-33333333-3--|
D|-33333333----------5555555555555555-33333333----|


Interlude Rhythm
e|------------------------------------------------|
B|------------------------------------------------|
G|------------------------------------------------|
D|-0-0-0-0-0-0-0-0-0-0-0-0--55-77-88-10-10--------|
A|-0-0-0-0-0-0-0-0-0-0-0-0--55-77-88-10-10--------|
D|-0-0-0-0-0-0-0-0-0-0-0-0--55-77-88-10-10--------|


Interlude Lead
e|-----8-----8-----8-----8-----8----8-----8-------|
B|-5h6---5h6---5h6---5h6---5h6---5h6—-5h6---5-----|
G|------------------------------------------------|
D|------------------------------------------------|
A|------------------------------------------------|
D|------------------------------------------------|


Interlude End
e|--------------------------------|
B|--------------------------------|
G|-2-2-2-2-2-2-2-2----------------|
D|-3-3-3-3-3-3-3-3—---------------|
A|-5-5-5-5-5-5-5-5----------------|
D|--------------------------------|


After Interlude "were only liars..."
e|----------------------------------------------------------|
B|----------------------------------------------------------|
G|-2-2-2-2--2-2-2-2--2-2-2-2--2-2-2-2---2-2-2-2--2-2-2-2--2-|
D|-3-3-3-3--3-3-3-3—-3-3-3-3--3-3-3-3---3-3-3-3--3-3-3-3--3-|
A|-5-5-5-5--4-4-4-4--3-3-3-3—-2-2-2-2---5-5-5-5--4-4-4-4--3-|
D|----------------------------------------------------------|



Ending "were only liars..."


e|------------------------------------------------|
B|------------------------------------------------|
G|------------------------------------------------|
D|-33-333-22-222-8888888888888888-----------------|
A|-33-333-33-333-8888888888888888-----------------|
D|-33-333-22-222-8888888888888888-----------------|


Ending Cont.
e|------------------------------------------------|
B|------------------------------------------------|
G|------------------------------------------------|
D|-33-333-22-222-11111111-00000000----------------|
A|-33-333-33-333-11111111-00000000----------------|
D|-33-333-22-222-11111111-00000000----------------|


Ending Cont.
e|------------------------------------------------|
B|------------------------------------------------|
G|----------55555555------------------------------|
D|-33333333-55555555-5555555555555555-------------|
A|-33333333-33333333-5555555555555555-------------|
D|-33333333----------5555555555555555-------------|


End
e|-------------------|
B|-------------------|
G|-------------------|
D|-3---2---8---------|
A|-3---3---8---------|
D|-3---2---8---------|
Guitar Tab Creator is intended to store guitar tab created through the tool. It currently does not support in-line text editing. Any text you place in here will be lost. If you need to comment on your tab, please use the "Tab Notes" section located below.