Experimentation no.1 Acoustic/Electric

(/) Slide Up  (\) Slide Down  (h) Hammer On  (p) Pull Off  (b) Bend (r) Release (v) Vibrato


E|-----------------------------------------------------------------------------------------------
B|---------0-----------------0-----------------0-0-3-3-0-0-5-5-0---------0---------0---------0---
G|---0---0---7---9-----0---0---7---9-----0---0---------------------0---0-----0---0-----0---0-----
D|-1---1-------7---9-1---1-------7---9-1---1---------------------1---1-----0---0---------0-------
A|-----------------------------------------------------------------------------------1-----------
E|-----------------------------------------------------------------------------------------------



E|-------------------------------------------------------------------------------------------
B|---------0---------0---------------0-------0-3-5-5-5-5-7b7b7b5-5---3-5\3-0-0-0-1-1-1/3-3-5h
G|---0---0-----0---0---0---0---0---0---0---0-----------------------4-------------------------
D|-----0-----1---1-------1---0---0-------0---------------------------------------------------
A|-2-----------------------------------------------------------------------------------------
E|-------------------------------------------------------------------------------------------



E|-------------------------------------------------
B|-3p5h5-7h5h7b7b5-5-------------------0---------0-
G|-------------------4-4-4-2-2---0---0-----0---0---
D|-----------------------------1---1-----0---0-----
A|-------------------------------------------------
E|-------------------------------------------------
http://www.guitartabcreator.com
Guitar Tab Creator is intended to store guitar tab created through the tool. It currently does not support in-line text editing. Any text you place in here will be lost. If you need to comment on your tab, please use the "Tab Notes" section located below.