Okami - Sun Rises

(/) Slide Up  (\) Slide Down  (h) Hammer On  (p) Pull Off  (b) Bend (r) Release (v) Vibrato

E|--5--3--5--8--5----3--5--8--5--3--0-----------
B|----------------------------------0--3--1--0--
G|----------------------------------------------
D|----------------------------------------------
A|----------------------------------------------
E|----------------------------------------------



E|-----------------------------12----15----15----17------------
B|---------------12----13--15--17----20----20----15----18--17--
G|--9--7--9--14----------------14----19----19----19--------16--
D|-----------------------------------------14--------------14--
A|-------------------------------------------------------------
E|-------------------------------------------------------------



E|------------15--13------------------------------------------------------------15-----------------------
B|--------------------15------15--14----------------------17----15----------17------18--15--------15-----
G|--------12--------------16----------14--16--------------------------------------------------16---------
D|------------------------17--------------15--------14---------------------------------------------------
A|--------------------------------------------------15---------------------------------------------------
E|-------------------------------------------------------------------------------------------------------



E|--------------------19----17--15----------------------
B|--------17----18------------------18--15--17----------
G|--16--------------------------------------16----------
D|------------------------------------------------18----
A|------------------------------------------------------
E|------------------------------------------------------



E|--20----19--17--15------------------17----------15--------17--15--17--22--20--19------17-----
B|----------------------17--15--17--------17--15------------------------------------20---------
G|---------------------------------------------------------------------------------------------
D|---------------------------------------------------------------------------------------------
A|---------------------------------------------------------------------------------------------
E|---------------------------------------------------------------------------------------------



E|------19--20---------------------------------------------------------------------------------
B|--------------------------------13--------------------13-------------------------------------
G|--------------------14--12--14------14--------12--14------14--12------------------12---------
D|------------------------------------------------------------------14------12--14------14-----
A|---------------------------------------------------------------------------------------------
E|---------------------------------------------------------------------------------------------



E|-------------------------------------------------------
B|-------------------------------------------------------
G|--------14--12-----------------------------------------
D|----------------12----10--12--10--9--------------------
A|---------------------------------------10--12----------
E|-------------------------------------------------------



E|----------------------
B|----------------------
G|-14-------14-14-14-16-
D|-15-12-15----15-------
A|----------------------
E|----------------------



E|------------------------------------------------------------------------
B|--10--------------13----------------------------------------------------
G|--14----12--14--------16--12----------------16--16----17--19------------
D|--15--------------------------14----12--14--------------------19--------
A|------------------------------------------------------------------------
E|------------------------------------------------------------------------



E|--------------------------------------------------------21--------
B|----------------------------------------------------22--22--------
G|--19------------19------------16--19--------19--21----------------
D|------19----17------19--17--------19----19------------------------
A|------------------------------------------------------------------
E|------------------------------------------------------------------



E|----------|----------|----------|----------|----------|----------|----------|----------|--
B|----------|----------|----------|----------|----------|----------|----------|----------|--
G|----------|----------|----------|----------|----------|----------|----------|----------|--
D|----------|----------|----------|----------|----------|----------|----------|----------|--
A|----------|----------|----------|----------|----------|----------|----------|----------|--
E|----------|----------|----------|----------|----------|----------|----------|----------|--



E|----------|----------|----------|----------|----------|----------|----------|----------|--
B|----------|----------|----------|----------|----------|----------|----------|----------|--
G|----------|----------|----------|----------|----------|----------|----------|----------|--
D|----------|----------|----------|----------|----------|----------|----------|----------|--
A|----------|----------|----------|----------|----------|----------|----------|----------|--
E|----------|----------|----------|----------|----------|----------|----------|----------|--



E|----------|-----------------------------------15----15----17--------------------
B|----------|-----------10--12----13--15--17----------------------18--17----------
G|----------|--9--7--9------------------------------------------------------------
D|----------|---------------------------------------------------------------------
A|----------|---------------------------------------------------------------------
E|----------|---------------------------------------------------------------------



E|--15--13------------------------------------------------------------------------
B|----------15------15------------------------------------------------------------
G|--------------16------18------16----------------------------------12------------
D|--------------------------19----------------14----12----------14------16--12----
A|--------------------------------------------------------------------------------
E|--------------------------------------------------------------------------------



E|------------------------------------------------------
B|------------------------------------------------------
G|----------------------------16----14--12--11----------
D|------12--------14----15----------------------12--14--
A|--14------14------------------------------------------
E|------------------------------------------------------
http://www.guitartabcreator.com
Guitar Tab Creator is intended to store guitar tab created through the tool. It currently does not support in-line text editing. Any text you place in here will be lost. If you need to comment on your tab, please use the "Tab Notes" section located below.