Test

E|----------------------------------------------------
B|-----------0-----0-----0-----------0-----0----------
G|--------2-----------2-----------2-----------2-------
D|-----2--------2--------------3--------3-------------
A|--0-----------------------0-------------------------
E|----------------------------------------------------


E|-----------------------------------------0----------
B|-----------3-----3-----3-----------1--------1p0-----
G|--------0-----------0-----------2----------------2--
D|-----0--------0--------------0--------0-------------
A|----------------------------------------------------
E|--3-----------------------1-------------------------


E|----------------------------------------------------
B|-----------0-----0-----0-----------0-----0----------
G|--------2-----------2-----------2-----------2-------
D|-----2--------2--------------3--------3-------------
A|--0-----------------------0-------------------------
E|----------------------------------------------------


E|-----------------------------------------0----------
B|-----------3-----3-----3-----------1--------1p0-----
G|--------0-----------0-----------2----------------2--
D|-----0--------0--------------0--------0-------------
A|----------------------------------------------------
E|--3-----------------------1-------------------------


E|----------------------------------------------------
B|-----------0-----0-----0-----------0-----0----------
G|--------2-----------2-----------2-----------2-------
D|-----2--------2--------------3--------3-------------
A|--0-----------------------0-------------------------
E|----------------------------------------------------


E|-----------------------------------------0----------
B|-----------3-----3-----3-----------1--------1p0-----
G|--------0-----------0-----------2----------------2--
D|-----0--------0--------------0--------0-------------
A|----------------------------------------------------
E|--3-----------------------1-------------------------


E|----------------------------------------------------
B|-----------0-----0-----0-----------0-----0----------
G|--------2-----------2-----------2-----------2-------
D|-----2--------2--------------3--------3-------------
A|--0-----------------------0-------------------------
E|----------------------------------------------------


E|-----------------------------------------0---------------
B|-----------3-----3-----3-----------1--------1------------
G|--------0-----------0-----------2--------------2----2/4--
D|-----0--------0--------------0--------0-------------3/5--
A|---------------------------------------------------------
E|--3-----------------------1------------------------------


E|----------------------------------------------------
B|-----------2--3--------5--------3--------2----------
G|--------2--------2--------2--------2----------------
D|-----2--------------2--------2--------2-------------
A|--0-------------------------------------------------
E|----------------------------------------------------


E|----------------------------------------------------
B|-----------0--3--------1--------0-------------------
G|--------2--------2--------2---------2---------------
D|-----3--------------3--------3----------------------
A|--0-------------------------------------------------
E|----------------------------------------------------


E|----------------------------------------------------
B|-----------2--3--------5--------3--------2----------
G|--------2--------2--------2--------2----------------
D|-----2--------------2--------2--------2-------------
A|--0-------------------------------------------------
E|----------------------------------------------------


E|-------------------------------3p2------------------
B|-----------0--3--------1----3-------3---------------
G|--------2--------2----------------------------------
D|-----3--------------3-------------------------------
A|--0-------------------------------------------------
E|----------------------------------------------------


E|----------------------------------------------------
B|-----------2--3--------5--------3--------2----------
G|--------2--------2--------2--------2----------------
D|-----2--------------2--------2--------2-------------
A|--0-------------------------------------------------
E|----------------------------------------------------


E|----------------------------------------------------
B|-----------0--3--------1--------0-------------------
G|--------2--------2--------2---------2---------------
D|-----3--------------3--------3----------------------
A|--0-------------------------------------------------
E|----------------------------------------------------


E|----------------------------------------------------
B|-----------2--3--------5--------3--------2----------
G|--------2--------2--------2--------2----------------
D|-----2--------------2--------2--------2-------------
A|--0-------------------------------------------------
E|----------------------------------------------------


E|--------------3-----2---2/7-7-7-8-7-7-5-5-3-5-5-5-3-0-0-0-0--
B|-----------0--3-----3---3/8-8-8-8-8-8-7-7-5-7-7-7-5-5-0-2-2--
G|--------2--------0------2/7-7-7-7-7-7-7-7-5-7-7-7-5-5-5-2-2--
D|-----3-------------------------------------------------------
A|--0----------------------------------------------------------
E|-------------------------------------------------------------

d d u d d d u u u d
E|--0--0-0-0--0--0--0-0-0-0---------------------------
B|--0--0-0-0--0--0--0-2-2-2---------------------------
G|--2--2-2-2--2--2--2-2-2-2---------------------------
D|--2--2-2-2--2--2--2-2-2-2---------------------------
A|--0--0-0-0--0--0--0-0-0-0---------------------------
E|----------------------------------------------------

d d u d d d u u u d d
E|--3--3-3-3--3--3--3-2-2-2---0-----------------------
B|--3--3-3-3--3--3--3-3-3-3---1p0---------------------
G|--0--0-0-0--0--0--0-2-2-2---0-----------------------
D|--2--2-2-2--2--2--2-0-0-0---0-----------------------
A|--0--0-0-0--0--0--0-0-0-0---------------------------
E|----------------------------------------------------

d d u d d d u u u d
E|--0--0-0-0--0--0--0-0-0-0---------------------------
B|--0--0-0-0--0--0--0-2-2-2---------------------------
G|--2--2-2-2--2--2--2-2-2-2---------------------------
D|--2--2-2-2--2--2--2-2-2-2---------------------------
A|--0--0-0-0--0--0--0-0-0-0---------------------------
E|----------------------------------------------------

d d u d d d u u u d
E|--3--3-3-3--3--3--3-2-2-2---------------------------
B|--3--3-3-3--3--3--3-3-3-3---------------------------
G|--0--0-0-0--0--0--0-2-2-2---------------------------
D|--2--2-2-2--2--2--2-0-0-0---------------------------
A|--0--0-0-0--0--0--0-0-0-0---------------------------
E|----------------------------------------------------


E|--------------0--3--3-------------------------------
B|-----------1--0--0--0-------------------------------
G|-----------0--2--0--0-------------------------------
D|-----------2--2--0--0-------------------------------
A|--0--2--0--3--0--2--2-------------------------------
E|--------------0--3--3-------------------------------


E|--------------2--0--0--0----------------------------
B|-----------1--3--0--0--0----------------------------
G|-----------0--2--2--2--2----------------------------
D|-----------2--0--2--2--2----------------------------
A|--0--2--0--3-----0--0--0----------------------------
E|-----------------0--0--0----------------------------

E|--------------0--3--3-------------------------------
B|-----------1--0--0--0-------------------------------
G|-----------0--2--0--0-------------------------------
D|-----------2--2--0--0-------------------------------
A|--0--2--0--3--0--2--2-------------------------------
E|--------------0--3--3-------------------------------


E|--------------2--0--0--0----------------------------
B|-----------1--3--0--0--0----------------------------
G|-----------0--2--2--2--2----------------------------
D|-----------2--0--2--2--2----------------------------
A|--0--2--0--3-----0--0--0----------------------------
E|-----------------0--0--0----------------------------


E|--0--0--0-0-0-0-0-----2-2-3-2-0-2-2-----------------
B|--0--0--1-1-1-3-3p1p0-3-3-3-3-3-3-3-----------------
G|--0--0--0-0-0-0-0-----2-2-2-2-2-2-2-----------------
D|--2--2--2-2-2-2-2-----0-0-0-0-0-0-0-----------------
A|--2--2--3-3-3-3-3-----------------------------------
E|--0--0----------------------------------------------


E|--0--0--0-0-0-0-0-----2-2-0-0-3-3-3-3---------------
B|--0--0--1-1-1-3-3p1p0-3-3-0-0-0-0-0-0---------------
G|--0--0--0-0-0-0-0-----2-2-2-2-0-0-0-0---------------
D|--2--2--2-2-2-2-2-----0-0-2-2-0-0-0-0---------------
A|--2--2--3-3-3-3-3---------0-0-2-2-2-2---------------
E|--0--0--------------------0-0-3-3-3-3---------------


E|--0--0--0-0-0-0-0-----2-2-3-2-0-2-2-----------------
B|--0--0--1-1-1-3-3p1p0-3-3-3-3-3-3-3-----------------
G|--0--0--0-0-0-0-0-----2-2-2-2-2-2-2-----------------
D|--2--2--2-2-2-2-2-----0-0-0-0-0-0-0-----------------
A|--2--2--3-3-3-3-3-----------------------------------
E|--0--0----------------------------------------------

d d u d d d u u u d u
E|--0--0-0-0--0--0--0-0-0-0-0-------------------------
B|--2--2-2-2--2--2--2-2-2-2-2-------------------------
G|--2--2-2-2--2--2--2-2-2-2-2-------------------------
D|--0--0-0-0--0--0--0-0-0-0-0-------------------------
A|--0--0-0-0--0--0--0-0-0-0-0-------------------------
E|----------------------------------------------------


d d u d d d u u u d
E|--0--0-0-0--0--0--0-0-0-0---------------------------
B|--2--2-2-2--2--2--2-2-2-2---------------------------
G|--3--3-3-3--3--3--3-3-3-3\2p0-----------------------
D|--0--0-0-0--0--0--0-0-0-0---------------------------
A|--0--0-0-0--0--0--0-0-0-0---------------------------
E|----------------------------------------------------


d d u d d d u u u d u
E|--0--0-0-0--0--0--0-0-0-0-0-------------------------
B|--2--2-2-2--2--2--2-2-2-2-2-------------------------
G|--2--2-2-2--2--2--2-2-2-2-2-------------------------
D|--0--0-0-0--0--0--0-0-0-0-0-------------------------
A|--0--0-0-0--0--0--0-0-0-0-0-------------------------
E|----------------------------------------------------


d d u d d d u u u d
E|--0--0-0-0--0--0--0-0-0-0---------------------------
B|--2--2-2-2--2--2--2-2-2-2---------------------------
G|--3--3-3-3--3--3--3-3-3-3\2p0-----------------------
D|--0--0-0-0--0--0--0-0-0-0---------------------------
A|--0--0-0-0--0--0--0-0-0-0---------------------------
E|----------------------------------------------------


E|-----0--------0--------0--------0-----------
B|--------0--------0--------0--------0-----0--
G|--------------------------------------2-----
D|--------------------------------------------
A|--0--------0--------0--------0--------------
E|--------------------------------------------


E|----------------------------------------------------
B|-----------2--3--------5--------3--------2----------
G|--------2--------2--------2--------2----------------
D|-----2--------------2--------2--------2-------------
A|--0-------------------------------------------------
E|----------------------------------------------------


E|----------------------------------------------------
B|-----------0--3--------1--------0-------------------
G|--------2--------2--------2---------2---------------
D|-----3--------------3--------3----------------------
A|--0-------------------------------------------------
E|----------------------------------------------------


E|----------------------------------------------------
B|-----------2--3--------5--------3--------2----------
G|--------2--------2--------2--------2----------------
D|-----2--------------2--------2--------2-------------
A|--0-------------------------------------------------
E|----------------------------------------------------


E|-------------------------------3p2------------------
B|-----------0--3--------1----3-------3---------------
G|--------2--------2----------------------------------
D|-----3--------------3-------------------------------
A|--0-------------------------------------------------
E|----------------------------------------------------


E|----------------------------------------------------
B|-----------2--3--------5--------3--------2----------
G|--------2--------2--------2--------2----------------
D|-----2--------------2--------2--------2-------------
A|--0-------------------------------------------------
E|----------------------------------------------------


E|----------------------------------------------------
B|-----------0--3--------1--------0-------------------
G|--------2--------2--------2---------2---------------
D|-----3--------------3--------3----------------------
A|--0-------------------------------------------------
E|----------------------------------------------------


E|----------------------------------------------------
B|-----------2--3--------5--------3--------2----------
G|--------2--------2--------2--------2----------------
D|-----2--------------2--------2--------2-------------
A|--0-------------------------------------------------
E|----------------------------------------------------


E|--------------3-----2---2/7-7-7-8-7-7-5-5-3-5-5-5-3-0-0-0-0--
B|-----------0--3-----3---3/8-8-8-8-8-8-7-7-5-7-7-7-5-5-0-2-2--
G|--------2--------0------2/7-7-7-7-7-7-7-7-5-7-7-7-5-5-5-2-2--
D|-----3-------------------------------------------------------
A|--0----------------------------------------------------------
E|-------------------------------------------------------------

d d u d d d u u u d
E|--0--0-0-0--0--0--0-0-0-0---------------------------
B|--0--0-0-0--0--0--0-2-2-2---------------------------
G|--2--2-2-2--2--2--2-2-2-2---------------------------
D|--2--2-2-2--2--2--2-2-2-2---------------------------
A|--0--0-0-0--0--0--0-0-0-0---------------------------
E|----------------------------------------------------

d d u d d d u u u d d
E|--3--3-3-3--3--3--3-2-2-2---0-----------------------
B|--3--3-3-3--3--3--3-3-3-3---1p0---------------------
G|--0--0-0-0--0--0--0-2-2-2---0-----------------------
D|--2--2-2-2--2--2--2-0-0-0---0-----------------------
A|--0--0-0-0--0--0--0-0-0-0---------------------------
E|----------------------------------------------------

d d u d d d u u u d
E|--0--0-0-0--0--0--0-0-0-0---------------------------
B|--0--0-0-0--0--0--0-2-2-2---------------------------
G|--2--2-2-2--2--2--2-2-2-2---------------------------
D|--2--2-2-2--2--2--2-2-2-2---------------------------
A|--0--0-0-0--0--0--0-0-0-0---------------------------
E|----------------------------------------------------

d d u d d d u u u d
E|--3--3-3-3--3--3--3-2-2-2---------------------------
B|--3--3-3-3--3--3--3-3-3-3---------------------------
G|--0--0-0-0--0--0--0-2-2-2---------------------------
D|--2--2-2-2--2--2--2-0-0-0---------------------------
A|--0--0-0-0--0--0--0-0-0-0---------------------------
E|----------------------------------------------------


E|--------------0--3--3-------------------------------
B|-----------1--0--0--0-------------------------------
G|-----------0--2--0--0-------------------------------
D|-----------2--2--0--0-------------------------------
A|--0--2--0--3--0--2--2-------------------------------
E|--------------0--3--3-------------------------------


E|--------------2--0--0--0----------------------------
B|-----------1--3--0--0--0----------------------------
G|-----------0--2--2--2--2----------------------------
D|-----------2--0--2--2--2----------------------------
A|--0--2--0--3-----0--0--0----------------------------
E|-----------------0--0--0----------------------------

E|--------------0--3--3-------------------------------
B|-----------1--0--0--0-------------------------------
G|-----------0--2--0--0-------------------------------
D|-----------2--2--0--0-------------------------------
A|--0--2--0--3--0--2--2-------------------------------
E|--------------0--3--3-------------------------------


E|--------------2--0--0--0----------------------------
B|-----------1--3--0--0--0----------------------------
G|-----------0--2--2--2--2----------------------------
D|-----------2--0--2--2--2----------------------------
A|--0--2--0--3-----0--0--0----------------------------
E|-----------------0--0--0----------------------------


E|--0--0--0-0-0-0-0-----2-2-3-2-0-2-2-----------------
B|--0--0--1-1-1-3-3p1p0-3-3-3-3-3-3-3-----------------
G|--0--0--0-0-0-0-0-----2-2-2-2-2-2-2-----------------
D|--2--2--2-2-2-2-2-----0-0-0-0-0-0-0-----------------
A|--2--2--3-3-3-3-3-----------------------------------
E|--0--0----------------------------------------------


E|--0--0--0-0-0-0-0-----2-2-0-0-3-3-3-3---------------
B|--0--0--1-1-1-3-3p1p0-3-3-0-0-0-0-0-0---------------
G|--0--0--0-0-0-0-0-----2-2-2-2-0-0-0-0---------------
D|--2--2--2-2-2-2-2-----0-0-2-2-0-0-0-0---------------
A|--2--2--3-3-3-3-3---------0-0-2-2-2-2---------------
E|--0--0--------------------0-0-3-3-3-3---------------


E|--0--0--0-0-0-0-0-----2-2-3-2-0-2-2-----------------
B|--0--0--1-1-1-3-3p1p0-3-3-3-3-3-3-3-----------------
G|--0--0--0-0-0-0-0-----2-2-2-2-2-2-2-----------------
D|--2--2--2-2-2-2-2-----0-0-0-0-0-0-0-----------------
A|--2--2--3-3-3-3-3-----------------------------------
E|--0--0----------------------------------------------

d d u d d d u u u d u
E|--0--0-0-0--0--0--0-0-0-0-0-------------------------
B|--2--2-2-2--2--2--2-2-2-2-2-------------------------
G|--2--2-2-2--2--2--2-2-2-2-2-------------------------
D|--0--0-0-0--0--0--0-0-0-0-0-------------------------
A|--0--0-0-0--0--0--0-0-0-0-0-------------------------
E|----------------------------------------------------


d d u d d d u u u d
E|--0--0-0-0--0--0--0-0-0-0---------------------------
B|--2--2-2-2--2--2--2-2-2-2---------------------------
G|--3--3-3-3--3--3--3-3-3-3\2p0-----------------------
D|--0--0-0-0--0--0--0-0-0-0---------------------------
A|--0--0-0-0--0--0--0-0-0-0---------------------------
E|----------------------------------------------------


d d u d d d u u u d u
E|--0--0-0-0--0--0--0-0-0-0-0-------------------------
B|--2--2-2-2--2--2--2-2-2-2-2-------------------------
G|--2--2-2-2--2--2--2-2-2-2-2-------------------------
D|--0--0-0-0--0--0--0-0-0-0-0-------------------------
A|--0--0-0-0--0--0--0-0-0-0-0-------------------------
E|----------------------------------------------------


d d u d d d u u u d
E|--0--0-0-0--0--0--0-0-0-0---------------------------
B|--2--2-2-2--2--2--2-2-2-2---------------------------
G|--3--3-3-3--3--3--3-3-3-3\2p0-----------------------
D|--0--0-0-0--0--0--0-0-0-0---------------------------
A|--0--0-0-0--0--0--0-0-0-0---------------------------
E|----------------------------------------------------

d d u d d d u u u d u
E|--0--0-0-0--0--0--0-0-0-0-0-------------------------
B|--2--2-2-2--2--2--2-2-2-2-2-------------------------
G|--2--2-2-2--2--2--2-2-2-2-2-------------------------
D|--0--0-0-0--0--0--0-0-0-0-0-------------------------
A|--0--0-0-0--0--0--0-0-0-0-0-------------------------
E|----------------------------------------------------


d d u d d d u u u d
E|--0--0-0-0--0--0--0-0-0-0---------------------------
B|--2--2-2-2--2--2--2-2-2-2---------------------------
G|--3--3-3-3--3--3--3-3-3-3\2p0-----------------------
D|--0--0-0-0--0--0--0-0-0-0---------------------------
A|--0--0-0-0--0--0--0-0-0-0---------------------------
E|----------------------------------------------------


d d u d d d u u u d u
E|--0--0-0-0--0--0--0-0-0-0-0-------------------------
B|--2--2-2-2--2--2--2-2-2-2-2-------------------------
G|--2--2-2-2--2--2--2-2-2-2-2-------------------------
D|--0--0-0-0--0--0--0-0-0-0-0-------------------------
A|--0--0-0-0--0--0--0-0-0-0-0-------------------------
E|----------------------------------------------------


d d u d d d u u u d
E|--0--0-0-0--0--0--0-0-0-0---------------------------
B|--2--2-2-2--2--2--2-2-2-2---------------------------
G|--3--3-3-3--3--3--3-3-3-3\2p0-----------------------
D|--0--0-0-0--0--0--0-0-0-0---------------------------
A|--0--0-0-0--0--0--0-0-0-0---------------------------
E|----------------------------------------------------


E|----------------------------------------------------
B|-----------0-----0-----0-----------0-----0----------
G|--------2-----------2-----------2-----------2-------
D|-----2--------2--------------3--------3-------------
A|--0-----------------------0-------------------------
E|----------------------------------------------------


E|-----------------------------------------0----------
B|-----------3-----3-----3-----------1--------1p0-----
G|--------0-----------0-----------2----------------2--
D|-----0--------0--------------0--------0-------------
A|----------------------------------------------------
E|--3-----------------------1-------------------------


E|----------------------------------------------------
B|-----------0-----0-----0-----------0-----0----------
G|--------2-----------2-----------2-----------2-------
D|-----2--------2--------------3--------3-------------
A|--0-----------------------0-------------------------
E|----------------------------------------------------


E|-----------------------------------------0----------
B|-----------3-----3-----3-----------1--------1p0-----
G|--------0-----------0-----------2----------------2--
D|-----0--------0--------------0--------0-------------
A|----------------------------------------------------
E|--3-----------------------1-------------------------


E|----------------------------------------------------
B|-----------0-----0-----0-----------0-----0----------
G|--------2-----------2-----------2-----------2-------
D|-----2--------2--------------3--------3-------------
A|--0-----------------------0-------------------------
E|----------------------------------------------------


E|-----------------------------------------0----------
B|-----------3-----3-----3-----------1--------1p0-----
G|--------0-----------0-----------2----------------2--
D|-----0--------0--------------0--------0-------------
A|----------------------------------------------------
E|--3-----------------------1-------------------------


E|----------------------------------------------------
B|-----------0-----0-----0-----------0-----0----------
G|--------2-----------2-----------2-----------2-------
D|-----2--------2--------------3--------3-------------
A|--0-----------------------0-------------------------
E|----------------------------------------------------


E|-----------------------------------------0---------------
B|-----------3-----3-----3-----------1--------1------------
G|--------0-----------0-----------2--------------2----2/4--
D|-----0--------0--------------0--------0-------------3/5--
A|---------------------------------------------------------
E|--3-----------------------1------------------------------
Guitar Tab Creator is intended to store guitar tab created through the tool. It currently does not support in-line text editing. Any text you place in here will be lost. If you need to comment on your tab, please use the "Tab Notes" section located below.