Above all (solo)

(/) Slide Up  (\) Slide Down  (h) Hammer On  (p) Pull Off  (b) Bend (r) Release (v) Vibrato
E|-----------------|--------------|-----------------|--------------------|--
B|--------4--3--1--|--------1-----|--------4--3--1--|--3--4--3--1--------|--
G|--3--3-----------|--1--1-----3--|--3--3-----------|--------------3--3--|--
D|-----------------|--------------|-----------------|--------------------|--
A|-----------------|--------------|-----------------|--------------------|--
E|-----------------|--------------|-----------------|--------------------|--



E|-----------------|-----------------------|-----------------------|--|--
B|-----------------|--3--4--3--------------|-----------------------|--|--
G|--0--0--3-----5--|-----------3--0--5--3--|--1--3--5--3--1--0-----|--|--
D|-----------------|-----------------------|--------------------3--|--|--
A|-----------------|-----------------------|-----------------------|--|--
E|-----------------|-----------------------|-----------------------|--|--



E|-----------|----------------|------------|------------------|--
B|--8--6--9--|--6--8\9--8--8--|--8--6--9v--|--6--8--9--8--8v--|--
G|-----------|----------------|------------|------------------|--
D|-----------|----------------|------------|------------------|--
A|-----------|----------------|------------|------------------|--
E|-----------|----------------|------------|------------------|--



E|------------|--------------------|--------------|------------------------|--
B|--8--6--4v--|--8--6--4--3--1-----|--6--4--------|-------4--4--3--1\3--4--|--
G|------------|-----------------3--|--------0--1--|--3\5-------------------|--
D|------------|--------------------|--------------|------------------------|--
A|------------|--------------------|--------------|------------------------|--
E|------------|--------------------|--------------|------------------------|--
http://www.guitartabcreator.com
Guitar Tab Creator is intended to store guitar tab created through the tool. It currently does not support in-line text editing. Any text you place in here will be lost. If you need to comment on your tab, please use the "Tab Notes" section located below.