Prica o Vasi Ladackom

(/) Slide Up  (\) Slide Down  (h) Hammer On  (p) Pull Off  (b) Bend (r) Release (v) Vibrato
E|---------------------------------------------|---------------------------------------|--
B|---------------------------------------------|---------------------------------------|--
G|---------------------------------------------|--1\2--2--3--2--2--2--3--2-------------|--
D|--------2--2---------------------------------|----------------------------4\5--3--3--|--
A|--0--0--------3--2--3--3\5--3--2--2\3--2--0--|---------------------------------------|--
E|---------------------------------------------|---------------------------------------|--



E|--------------------------|-------------------------3--2-----|-----
B|--------------------------|-------------------3--5--------3--|-----
G|--------------------------|----------3--4--6-----------------|-----
D|--0--0--0--0--0--2--3--0--|--3\4--6--------------------------|-----
A|--------------------------|----------------------------------|-----
E|--------------------------|----------------------------------|-----



E|-----------8--8/7------------------------------------------|--
B|-------------------10--9-----------------------------------|--
G|--8\9--11-----------------10--9------7--9------------------|--
D|---------------------------------10--------10--10/9--7--7--|--
A|-----------------------------------------------------------|--
E|-----------------------------------------------------------|--



E|-------------------------------------------|-------------------5\6--3--------------
B|-------------------------------------------|----------------2----------6--5--3-----
G|-------------------------------------------|--2\3--2--1--4-------------------------
D|-----2--2--2-------------------------------|---------------------------------------
A|--0-----------3--2--3--3\5--3--2--3--2--0--|---------------------------------------
E|-------------------------------------------|---------------------------------------



E|-----------------------------------|-----
B|-----------------------------------|-----
G|--5--6--5--3--2--0-----0--3--2--2--|-----
D|--------------------3--------------|-----
A|-----------------------------------|-----
E|-----------------------------------|-----
http://www.guitartabcreator.com
Guitar Tab Creator is intended to store guitar tab created through the tool. It currently does not support in-line text editing. Any text you place in here will be lost. If you need to comment on your tab, please use the "Tab Notes" section located below.