Ukulele project 1

(/) Slide Up  (\) Slide Down  (h) Hammer On  (p) Pull Off  (b) Bend (r) Release (v) Vibrato

E|-----3-----------3-----------2-----------2-----------3-----------3-----------2--------
B|--------0-----------0-----------0-----------0-----------0-----------0-----------0-----
G|-----------0-----------0-----------0-----------0-----------0-----------0-----------0--
D|--2-----------2-----------2-----------2-----------2-----------2-----------2-----------
A|--------------------------------------------------------------------------------------
E|--------------------------------------------------------------------------------------



E|-----2-----------5-----------5-----------3-----------3-----------5-----------5-----------3--
B|--------0-----------0-----------0-----------0-----------0-----------0-----------0-----------
G|-----------0-----------0-----------0-----------0-----------0-----------0-----------0--------
D|--2-----------2-----------2-----------2-----------2-----------2-----------2-----------2-----
A|--------------------------------------------------------------------------------------------
E|--------------------------------------------------------------------------------------------



E|-----3-----------3-----------2-----------2-----------3-----------3-----------2--------
B|--------0-----------0-----------0-----------0-----------0-----------0-----------0-----
G|-----------0-----------0-----------0-----------0-----------0-----------0-----------0--
D|--2-----------2-----------2-----------2-----------2-----------2-----------2-----------
A|--------------------------------------------------------------------------------------
E|--------------------------------------------------------------------------------------



E|-----2-----------5-----------5-----------3-----------3-----------5-----------5-----------7--
B|--------0-----------0-----------0-----------0-----------0-----------0-----------0-----------
G|-----------0-----------0-----------0-----------0-----------0-----------0-----------0--------
D|--2-----------2-----------2-----------2-----------2-----------2-----------2-----------5-----
A|--------------------------------------------------------------------------------------------
E|--------------------------------------------------------------------------------------------
http://www.guitartabcreator.com
Guitar Tab Creator is intended to store guitar tab created through the tool. It currently does not support in-line text editing. Any text you place in here will be lost. If you need to comment on your tab, please use the "Tab Notes" section located below.