The Thrill Is Gone - Gary Moore - Solo

(/) Slide Up  (\) Slide Down  (h) Hammer On  (p) Pull Off  (b) Bend (r) Release (v) Vibrato

Stave 1:

E|--13b15--13b15--11------|------11---------|-----8--8----8--11--13--|--13b14--13--15------|--------
B|--------------------13--|--13------13\----|--8---------------------|-----------------15--|--------
G|------------------------|-----------------|------------------------|---------------------|--------
D|------------------------|-----------------|------------------------|---------------------|--------
A|------------------------|-----------------|------------------------|---------------------|--------
E|------------------------|-----------------|------------------------|---------------------|--------

Stave 2:

E|-------------8------------------------|-------------8-------------|------------------|--
B|--11b13---------11--------------------|----------------11---------|---------------4--|--
G|--------------------10b12--10--8------|--10b12-------------10b12--|--8---------------|--
D|----------------------------------10--|---------------------------|-----10-----------|--
A|--------------------------------------|---------------------------|------------------|--
E|--------------------------------------|---------------------------|------------------|--

Stave 3:

E|-------------------------------|--------------------|--------------|--
B|--6b8r6p4--6-----4/6--------4--|--6b8r6p4--6--6--4--|--4-----------|--
G|--------------5----------------|--------------------|-----5--------|--
D|-------------------------------|--------------------|--------------|--
A|-------------------------------|--------------------|--------------|--
E|-------------------------------|--------------------|--------------|--

Stave 4:

E|---------11--13--|--13b15--11--13------13b14r13p11--------------|--------13------13--|--
B|--11/13----------|-----------------13---------------13--13--11--|--------13--16------|--
G|-----------------|----------------------------------------------|--------------------|--
D|-----------------|----------------------------------------------|--------------------|--
A|-----------------|----------------------------------------------|--------------------|--
E|-----------------|----------------------------------------------|--------------------|--

Stave 5:

E|--------------------------------------------------------------------------------------------------------------------------------------------
B|--------------------------------------------------------------------------------------------------------------------------------------------
G|--------------------------------------------------------------------------------------------------------------------------------------------
D|--------------------------------------------------------------------------------------------------------------------------------------------
A|--------------------------------------------------------------------------------------------------------------------------------------------
E|--------------------------------------------------------------------------------------------------------------------------------------------

Stave 6:

E|--------------------|--------------------------|--
B|--16b18--16p13------|--13--16--13-----------8--|--
G|----------------15--|----------------10b12-----|--
D|--------------------|--------------------------|--
A|--------------------|--------------------------|--
E|--------------------|--------------------------|--

Stave 7:

E|--8-----------------------------------------|----------8h11--11b13--|--
B|-----11p8-------------------------8---------|----8h11---------------|--
G|-----------10b12r10p8h10p8--8h10-----8------|-----------------------|--
D|----------------------------------------10--|-----------------------|--
A|--------------------------------------------|-----------------------|--
E|--------------------------------------------|-----------------------|--

Stave 8:

E|--11b12--8h11p8---------8-----------------|--------------------------------------
B|-----------------11b12--------------------|--------------------------------------
G|---------------------------10--10--8------|--------------------------------------
D|--------------------------------------10--|--------------------------------------
A|------------------------------------------|--------------------------------------
E|------------------------------------------|--------------------------------------

Stave 9:

E|--------------------------8---------------8---------8--------|--
B|-----------------------8-----11p8---------8---------8--11p8--|--
G|--10--8------8--10b12--------------10b12-----10b12-----------|--
D|---------10--------------------------------------------------|--
A|-------------------------------------------------------------|--
E|-------------------------------------------------------------|--

Stave 10:

E|---------8-----------------------8---------------8--------
B|---------8--------------------8-----11p8---------8--11p8--
G|--10b12-----10--10--8--10b12--------------10b12-----------
D|----------------------------------------------------------
A|----------------------------------------------------------
E|----------------------------------------------------------

Stave 11:

E|---------8---------------------------------------------------|--
B|---------8--11p8---------8-----------------------------------|--
G|--10b12-----------10b12-----10b12r10--8--10p8----------------|--
D|-----------------------------------------------10--8---------|--
A|------------------------------------------------------8------|--
E|---------------------------------------------------------11--|--

Stave 12:

E|--------------------
B|--------------------
G|--------------------
D|--------------------
A|--------------------
E|--8----11--8--------

http://www.guitartabcreator.com
Guitar Tab Creator is intended to store guitar tab created through the tool. It currently does not support in-line text editing. Any text you place in here will be lost. If you need to comment on your tab, please use the "Tab Notes" section located below.