Counterparts - Witness

(/) Slide Up  (\) Slide Down  (h) Hammer On  (p) Pull Off  (b) Bend (r) Release (v) Vibrato

E|--------------------------------------------------------------------------------------------------
B|--------------------------------------------------------------------------------------------------
G|--------------------------------------------------------------------------------------------------
D|--------------------------------------------------4--4--4--4--4--4--4--4--4--4--4--4--4--4--4--4--
A|--2--2--2--2--2--2--2--2--2--2--2--2--2--2--2--2--2--2--2--2--2--2--2--2--2--2--2--2--2--2--2--2--
E|--0--0--0--0--0--0--0--0--2--2--2--2--2--2--2--2--3--3--3--3--3--3--3--3--3--3--3--3--3--3--3--3--



E|------------------------
B|------------------------
G|------------------------
D|--------------4---------
A|----2----2----2---------
E|----0----2----3---------



E|-----------------------------------------------------------------
B|-----------------------------------------------------------------
G|-----------------------------------------------------------------
D|-----------------------------------------------------------------
A|-3-3-3-3-3-3-3-3-3-3-3-3-3-3-3-3-5-5-5-5-5-5-5-5-5-5-5-5-5-5-5-5-
E|-7-7-7-7-7-7-7-7-7-7-7-7-7-7-7-7-2-2-2-2-2-2-2-2-2-2-2-2-2-2-2-2-



E|--------------------------------------------------------------------------
B|--------------------------------------------------------------------------
G|--------------------------------------------------------------------------
D|--9-----------------------------------9-----------------------------------
A|--7--2--3--3--3--3--3--3--3--3--3--3--7--2--3--3--3--3--3--3--3--3--3--3--
E|-----0--7--7--7--7--7--7--7--7--7--7-----0--7--7--7--7--7--7--7--7--7--7--



E|--------------------------------------------------
B|--------------------------------------------------
G|--------------------------------------------------
D|--9--9--------9-----------------------------------
A|--7--7--2--2--7--2--3--3--3--3--3--3--3--3--3--3--
E|--------0--0-----0--7--7--7--7--7--7--7--7--7--7--



E|-----------------------------------------------------------
B|-----------------------------------------------------------
G|-----------------------------------------------------------
D|--9-----------------------------------7--7--7--7--9--9--9--
A|--7--2--3--3--3--3--3--3--3--3--3--3--7--7--7--7--9--9--9--
E|-----0--7--7--7--7--7--7--7--7--7--7--5--5--5--5--7--7--7--



E|-----------------------------------------------------------------------------
B|-----------------------------------------------------------------------------
G|-----------------------------------------------------------------------------
D|-----9-----------------------------------9-----------7--7--7--7--9--9--9--9--
A|-----7--2--3--3--3--3--3--3--3--3--3--3--7--2--3--3--7--7--7--7--9--9--9--9--
E|--------0--7--7--7--7--7--7--7--7--7--7-----0--7--7--5--5--5--5--7--7--7--7--



E|--------------------------------------------------------------------------
B|--------------------------------------------------------------------------
G|--------------------------------------------------------------------------
D|--9-----------------------------------9-----------------------------------
A|--7--2--3--3--3--3--3--3--3--3--3--3--7--2--3--3--3--3--3--3--3--3--3--3--
E|-----0--7--7--7--7--7--7--7--7--7--7-----0--7--7--7--7--7--7--7--7--7--7--



E|-----------0---
B|-----------0---
G|---------------
D|-----------2---
A|---7---9---2---
E|---5---7---0---



E|-------------------------------
B|-------------------------------
G|---------4------------4-----4--
D|----------------------------0--
A|--0h2/3-----3--0h2/3-----3--3--
E|-------------------------------



E|--------------------------------------
B|--------------------------------------
G|--------------------------------------
D|--------------------------------------
A|--3--3--3--3--------------------------
E|--0--0--0--0--0--0--0--0--0--0--0--0--



E|-----------------
B|-----------------
G|-----------------
D|-----2--------0--
A|--3--3--3--2--2--
E|--3-----3--2-----



E|--
B|--
G|--
D|--
A|--
E|--



E|-----------------------
B|-----------------------
G|-----------------------
D|-----2-----------4-----
A|-----2-----2-----2-----
E|-----0-----2-----3-----



E|-----------------------------------------------------------------------------------------------
B|-----------------------------------------------------------------------------------------------
G|-----------------------------------------------------------------------------------------------
D|-----------------------------------------------9--9--9--9--9--9--9--9--9--9--9--9--9--9--9--9--
A|--3--3--3--3--3--3--3--3--3--3--3--3--3--3--3--6--6--6--6--6--6--6--6--6--6--6--6--6--6--6--6--
E|--7--7--7--7--7--7--7--7--7--7--7--7--7--7--7--7--7--7--7--7--7--7--7--7--7--7--7--7--7--7--7--



E|-----------------------------------------------
B|-----------------------------------------------
G|-----4--4b5r4-----4b5r4-----4b5r4--------------
D|--9--------------------------------------------
A|--7--2---------3---------3---------3--3--3--3--
E|-----0--------------------------------0--0--0--



E|--------------------------------------------
B|--------------------------------------------
G|--------4b5r4-----4b5r4-----4b5r4-----------
D|--9-----------------------------------7--9--
A|--7--2---------3---------3---------3--7--9--
E|-----0--------------------------------5--7--



E|--------------------------------------------------
B|--------------------------------------------------
G|--------4b5r4-----4b5r4-----4b5r4-----------------
D|--9-----------------------------------------------
A|--7--2---------3---------3---------3--3--3--3--3--
E|-----0--------------------------------0--0--0--0--



E|-----------------------------------------------
B|-----------------------------------------------
G|--------4b5r4-----4b5r4-----4b5r4--------------
D|--9-----------------------------------7--9-----
A|--7--2---------3---------3---------3--7--7-----
E|-----0--------------------------------5--7-----



E|--------------------------------------------------------------------------------------
B|--------------------------------------------------------------------------------------
G|--------------------------------------------------------------------------------------
D|--9-----------------------------------------------------------------------------7--9--
A|--7--2--3--3--3--3--3--3--3--3--3--3--3--3--3--3--3--3--3--3--3--3--3--3--3--3--7--9--
E|-----0--0--0--0--0--0--0--0--0--0--0--0--0--0--0--0--0--0--0--0--0--0--0--0--0--5--7--



E|--------------------------------------------------------------------
B|--------------------------------------------------------------------
G|-----------------------------4-----4--------------------------------
D|--9-----------0--------0-----0-----0--9-----------0--0--------0--0--
A|--7--2--3--3--3--3--3--3--3--3--3--3--7--2--3--3--3--3--3--3--3--3--
E|-----0--0--0--0--0--0--0--0-----0--------0--0--0--0--0--0--0--0--0--



E|-------------------0---
B|-------------------0---
G|-----------------------
D|---7---9---5---5---2---
A|---7---9---5---5---2---
E|---5---7---3---2---0---



E|--0-----------------------0--------0--------------------
B|-----3-----------------3-----3-----3--------------------
G|--------4--------4--------------4--4--------------------
D|-----------5--4-----4--------------5--------------------
A|--------------------------------------3--3--3--3--3--3--
E|--------------------------------------0--0--0--0--0--0--



E|-----------------------------------------
B|-----3-----3-----3-----3-----3-----------
G|-----4-----4-----4-----4-----4--4--------
D|-----0-----0-----0-----0-----0-----0-----
A|--3--3--3--3--3--3--3--3--3--3-----------
E|--0-----0-----0-----0-----0-----------0--



E|------------------------------------------------------
B|------------------------------------------------------
G|------------------------------------------------------
D|------------------------------------------------------
A|--3--3----3--3----3--3--3--3----3--3----3--3----3--3--
E|--0--0----0--0----0--0--0--0----0--0----0--0----0--0--



E|-----0-----0-------0-----0-----0-------------------------
B|-----3-----3-------3-----3-----3-------------------------
G|-----4-----4-------4-----4-----4--4b5r4--4b5r4-----------
D|-----4-----4-------4-----4-----4----------------0--------
A|--3--3--3--3----3--3--3--3--3--3-------------------3-----
E|--0-----0-------0-----0-----0----------------------------



E|-----0-----0-----0------------
B|-----3-----3-----3------------
G|-----4-----4-----4--4b5r4-----
D|-----4-----4-----4---------0--
A|--3--3--3--3--3--3---------3--
E|--0-----0-----0---------------
http://www.guitartabcreator.com
Guitar Tab Creator is intended to store guitar tab created through the tool. It currently does not support in-line text editing. Any text you place in here will be lost. If you need to comment on your tab, please use the "Tab Notes" section located below.