Counterparts-Jumping Ship

(/) Slide Up  (\) Slide Down  (h) Hammer On  (p) Pull Off  (b) Bend (r) Release (v) Vibrato


E|----------------------------------------------------------------|-
B|----------------------------------------------------------------|-
G|----------------------------------------------------------------|-
D|--------------------------------------------------------7-------|-
A|-5-5-5-5-5--5--5---5--5--5-5-5-5-5--5--5---5--5---5-0-1-5-1--5--|-
E|-6-6-6-6-6--6--6---6--6--6-6-6-6-6--6--6---6--6---5-0-1---1--5--|-



E|--------------------------------------------------|-
B|--------------------------------------------------|-
G|-3-3-3-3--3--3---3--3-----------------------------|-
D|-0-0-0-0--0--0---0--0---------7-----8-----8-------|-
A|-6-6-6-6--6--6---6--6---5-0-1-5-0-1-6---4-6-4--1--|-
E|-6-6-6-6--6--6---6--6---5-0-1---0-1-----4---4--1--|-



E|------------------------------------------------------------------------------------|---
B|------------------------------------------------------------------------------------|---
G|------------------------------------------------------------------------------------|---
D|---8------------8-------8-----------8------------8-------8------------8-----------8-|---
A|-4-6-0-0-0-0--4-6-0-1-4-6-0-0-0-0-4-6-0-0-0-0--4-6-0-1-4-6-0-0-0-0--4-6-0-0-0-0-4-6-|---
E|-4---0-0-0-0--4---0-1-4---0-0-0-0-4---0-0-0-0--4---0-1-4---0-0-0-0--4---0-0-0-0-4---|---



E|-------------------------------------
B|-------------------------------------
G|-------------------------------------
D|-------8---------8-----------8-------
A|-0-1-4-6-0-0-0-0-6-0-0-0-0-0-6-0-4-4-
E|-0-1-4---0-0-0-0---0-0-0-0-0---0-4-4-



E|-----------------------------------------------------------------------------------------------
B|-----------------------------------------------------------------------------------------------
G|-----------------------------------------------------------------------------------------------
D|---------------------------------------------8---------------------------------------------1-4-
A|-0-0-0-0-0-0-0-0--0--0-0--0-0-0-0-0-0-0-0--0-6-0--0-0-0-0-0--0-0-0-0-0--0-0-0-0-0--0-0-0-0-1-4-
E|-0-0-0-0-0-0-0-0--0--0-0--0-0-0-0-0-0-0-0--0---0--0-0-0-0-0--0-0-0-0-0--0-0-0-0-0--0-0-0-0-1-4-



E|---------------------------------------------------------
B|---------------------------------------------------------
G|---------------------------------------------------------
D|---------------------------------------------------------
A|---------------------------------------------------------
E|-1-1-1-1-1--1--1-1-1-1-1--4--4-4-4-4-4-4--4--4-4-4-4-4-4-



E|--------------------------------------------------
B|------------------11-11-11-8-9--------------------
G|--------------------------------------------------
D|-0-0-0-0-0-0-0-0--8--8--8--5-6--------------------
A|-6-6-6-6-6-6-6-6----------------6-6--9-9------6-6-
E|--------------------------------6-6--9-9------3-5-



E|-----------------------------------------------------------------------------------------
B|-----------------------------------------------------------------------------------------
G|-----------------------------------------------------------------------------------------
D|-8-8-8-8--13-13-13-12--8-8-8-8--13-13-13--8--8------8--13-13-13-12--13-13-12-12-10-10-10-
A|-6-6-6-6--10-10-10-10--6-6-6-6--10-10-10--6--6------6--10-10-10-10--8--8--8--8--8--8--8--
E|-6-6-6-6--10-10-10-10--6-6-6-6--10-10-10--5--6------6--10-10-10-10--8--8--8--8--8--8--8--



E|----------------------------------|-
B|----------------------------------|-
G|----------------------------------|-
D|-10-10-8-10\13-12--8-8------------|-
A|-10-10-8-10-10-10--6-6-------6-6--|-
E|-10-10-8-10-10-10--6-6-------3-5--|-
http://www.guitartabcreator.com
Guitar Tab Creator is intended to store guitar tab created through the tool. It currently does not support in-line text editing. Any text you place in here will be lost. If you need to comment on your tab, please use the "Tab Notes" section located below.