Counterparts - The Constant

(/) Slide Up  (\) Slide Down  (h) Hammer On  (p) Pull Off  (b) Bend (r) Release (v) Vibrato


E|--3----|--
B|--3----|--
G|--0----|--
D|--2----|--
A|--3----|--
E|-------|--



E|-3-3-3-3-3-3-3-3-3-3-3-3-3-3-3-3------------------------------------------------------------|-
B|-3-3-3-3-3-3-3-3-3-3-3-3-3-3-3-3--5-5-5--5-5-5-------------3-------3-------3-------3--------|-
G|-0-0-0-0-0-0-0-0-0-0-0-0-0-0-0-0--0-0-0--0-0-0---------------0-------0-------0-------0------|-
D|----------------------------------4-4-4--4-4-4-----6p5---7-------4-------4-----4-4-----4-4--|-
A|-2-2-2-2-2-2-2-2-2-2-2-2-2-2-2-2--5-5-5--5-5-5---5-----5-------3-------3-------3-3-----3-3--|-
E|-2-2-2-2-2-2-2-2-2-2-2-2-2-2-2-2------------------------------------------------------------|-



E|----------------------------------------------------------------------------------|-
B|----------------------------------------------------------------------------------|-
G|----------------------------------------------------------------------------------|-
D|-4-4-4-4-4-4-4--4-4-4-4-4-4-4-4-4-4-4-4-4-4-4-4--7-7-7-7-7-7-7-7-7-7-7-7-7-7-7-7--|-
A|-5-5-5-5-5-5-5--2-2-2-2-2-2-2-2-2-2-2-2-2-2-2-2--5-5-5-5-5-5-5-5-5-5-5-5-5-5-5-5--|-
E|-0-0-0-0-0-0-0--2-2-2-2-2-2-2-2-2-2-2-2-2-2-2-2--4-4-4-4-4-4-4-4-4-4-4-4-4-4-4-4--|-



E|-------------------------------------------------------------------|-
B|-------------------------------------------------------------------|-
G|-12-12-12-12--11-11-11----11-11------------------------------------|-
D|-10-10-10-10--10-10-10-10-10-10---12-12-12-12-12---12-12-12-12-12--|-
A|-10-10-10-10--10-10-10-10-10-10---10-10-10-10-10---10-10-10-10-10--|-
E|-10-10-10-10--10-10-10-10-10-10---10-10-10-10-10---10-10-10-10-10--|-
http://www.guitartabcreator.com
Guitar Tab Creator is intended to store guitar tab created through the tool. It currently does not support in-line text editing. Any text you place in here will be lost. If you need to comment on your tab, please use the "Tab Notes" section located below.