Counterparts-Compass

(/) Slide Up  (\) Slide Down  (h) Hammer On  (p) Pull Off  (b) Bend (r) Release (v) Vibrato


E|-------------------------------------------------------------------------------------------------------|--
B|-------------------------------------------------------------------------------------------------------|--
G|-------------------------------------------------------------------------------5--5--5--5--------------|--
D|--0--0--0--0--0--0--7--7--7--7--7--7--5--5--5--5--5--5----------0--3--3--3--3--3--3--3--3--7--7--7--7--|--
A|--0--0--0--0--0--0--3--3--3--3--3--3--3--3--3--3--3--3--13---------7--7--7--7--7--7--7--7--3--3--3--3--|--
E|--0--0--0--0--0--0--3--3--3--3--3--3--2--2--2--2--2--2------12-----------------------------3--3--3--3--|--



E|--------------------------------------------------------------------------------------------|--
B|--------------------------------------------------------------------------------------------|--
G|--------------14----------14--14-----14----------14--14-----14----------14----------14--14--|--
D|--5--5--5--5--------------------------------------------------------------------------------|--
A|--3--3--3--3------13------13--13---------13------13--13---------13----------13------13--13--|--
E|--2--2--2--2----------12--12--12--0----------12--12--12--0----------12----------12--12--12--|--



E|----------------------------------------------
B|----------------------------------------------
G|-----14----------14----------14--14-----------
D|----------------------------------------------
A|---------13----------12--12--13--13-----------
E|--0----------12------8---8---12--12--0--------
http://www.guitartabcreator.com
Guitar Tab Creator is intended to store guitar tab created through the tool. It currently does not support in-line text editing. Any text you place in here will be lost. If you need to comment on your tab, please use the "Tab Notes" section located below.