qwe

(/) Slide Up  (\) Slide Down  (h) Hammer On  (p) Pull Off  (b) Bend (r) Release (v) Vibrato

E|--------------------------------------------------------------------------------------------------------------------------------------------------------------------------------------------------------------
B|--------------------------------------------------------------------------------------------------------------------------------------------------------------------------------------------------------------
G|----------12--12------------------11--11------------------12------11------12------11----------11------11------11------11------11------11------11------11------11------------------11--12----------------------
D|------12----------12----------11----------11----------12------11------12------11----------11------11------11------11------11------11------11------11------11--------------12--11----------12--11----------12--
A|--12------------------12--11------------------11--12----------------------------------11--------------------------------------------------------------------------11--12--------------------------11--12------
E|--------------------------------------------------------------------------------------------------------------------------------------------------------------------------------------------------------------



E|---------------------------------------------------------
B|---------------------------------------------------------
G|--12--------12--6--12-----12-----5--6--5--6--5--6--8-----
D|------9--9-------------9------9--------------------------
A|------------------------------------------------------8--
E|---------------------------------------------------------
http://www.guitartabcreator.com
Guitar Tab Creator is intended to store guitar tab created through the tool. It currently does not support in-line text editing. Any text you place in here will be lost. If you need to comment on your tab, please use the "Tab Notes" section located below.