Lonnie fra Berlin - Intro

(/) Slide Up  (\) Slide Down  (h) Hammer On  (p) Pull Off  (b) Bend (r) Release (v) Vibrato
E|------------------------------------------
B|------------------16----------------------
G|--17--15--13--13------17--18--18--17--15--
D|------------------------------------------
A|------------------------------------------
E|------------------------------------------



E|------------------------------
B|------16----------------------
G|----------15--17--17--15--13--
D|--14--------------------------
A|------------------------------
E|------------------------------



E|--------------------------------------------------
B|------16------------------------------------------
G|--13------17--18--18--17--15--15--15--17--18--15--
D|--------------------------------------------------
A|--------------------------------------------------
E|--------------------------------------------------
http://www.guitartabcreator.com
Guitar Tab Creator is intended to store guitar tab created through the tool. It currently does not support in-line text editing. Any text you place in here will be lost. If you need to comment on your tab, please use the "Tab Notes" section located below.