First Metal Song

(/) Slide Up  (\) Slide Down  (h) Hammer On  (p) Pull Off  (b) Bend (r) Release (v) Vibrato

Stave 1:

E|----------------------------------------------------
B|----------------------------------------------------
G|--------------------2-------------------------------
D|--------0--1--0-----2----------------------------2--
A|--0--3-----------3--0----------------0--1--0-----2--
E|-------------------------------0--3-----------3--0--

Stave 2:

E|----------------------------------------------------
B|----------------------------------------------------
G|--------------------4-------------------------------
D|-----0--2--3--2--0--4----------------------------4--
A|--2-----------------2-------------0--2--3--2--0--4--
E|-------------------------------2-----------------2--

Stave 3:

E|--
B|--
G|--
D|--
A|--
E|--

http://www.guitartabcreator.com
Guitar Tab Creator is intended to store guitar tab created through the tool. It currently does not support in-line text editing. Any text you place in here will be lost. If you need to comment on your tab, please use the "Tab Notes" section located below.