The Confessor - Intro

(/) Slide Up  (\) Slide Down  (h) Hammer On  (p) Pull Off  (b) Bend (r) Release (v) Vibrato


E|--0-----------6--4--
B|-----4-----0--7--0--
G|--------5-----8--3--
D|-----------------0--
A|-----------------0--
E|-----------------0--



E|--0-----------6--7--
B|-----4-----0--7--9--
G|--------5-----8--8--
D|-----------------0--
A|-----------------0--
E|-----------------0--



E|------------------------------------------------------4--
B|------------------------------------------------------0--
G|------------------------------------------------------3--
D|-------0--0--0--0-------0--3p0-------0--3p0--3--2--0--0--
A|--3h5--------------3h5----------3h5----------3--2--0--0--
E|---------------------------------------------3--2--0--0--



E|--0--
B|--3--
G|--3--
D|--3--
A|--0--
E|-----



E|--0--
B|--3--
G|--1--
D|--2--
A|--0--
E|-----



E|--0--
B|--0--
G|--5--
D|--5--
A|--0--
E|-----



E|--0--
B|--4--
G|--3--
D|--0--
A|--0--
E|--0--



E|--7--7--7--5--
B|--9--7--5--5--
G|--8--6--5--4--
D|--0--0--0--0--
A|--------------
E|--------------
http://www.guitartabcreator.com
Guitar Tab Creator is intended to store guitar tab created through the tool. It currently does not support in-line text editing. Any text you place in here will be lost. If you need to comment on your tab, please use the "Tab Notes" section located below.