you get the idea untitled e major

(/) Slide Up  (\) Slide Down  (h) Hammer On  (p) Pull Off  (b) Bend (r) Release (v) Vibrato


E|--------------------------------------------------------
B|-----------------------------5-----------------------5--
G|-----------------------------5-----------------------5--
D|-----7-----5-----------------------7-----5-----5--------
A|--5-----8-----7--8--7--8--7-----5-----8-----7-----5-----
E|--------------------------------------------------------



E|--5--------5--5--5--3------3--3--3----------------5----5--5--5--
B|--5--------5--5--5--3------3--3--3--6----6--6--6--5----5--5--5--
G|--5--------5--5--5--3------3--3--3--7----7--7--7--5----5--5--5--
D|--5--------5--5--5--3------3--3--3--7----7--7--7--5----5--5--5--
A|--5--------5--5--5--3------3--3--3--5----5--5--5--5----5--5--5--
E|--5-----------------3-------------------------------------------



E|--
B|--
G|--
D|--
A|--
E|--
http://www.guitartabcreator.com
Guitar Tab Creator is intended to store guitar tab created through the tool. It currently does not support in-line text editing. Any text you place in here will be lost. If you need to comment on your tab, please use the "Tab Notes" section located below.