X-marked wrist tape

(/) Slide Up  (\) Slide Down  (h) Hammer On  (p) Pull Off  (b) Bend (r) Release (v) Vibrato

Stave 1:

E|-----------------------------------------------------------------------
B|-----------------------------------------------------------------------
G|-----------3--5--5-----------------------------------------------------
D|--3--5--5--------------------3--5--5-----------1--3--3--------0--1--1--
A|--------------------5--6--6-----------3--5--5-----------2--3-----------
E|-----------------------------------------------------------------------

Stave 2:

E|-------------------------------------------------------------------------
B|-------------------------------------------------------------------------
G|-------------------------------------------------------------------------
D|--3--5--3--5--3----------------------------------------------------------
A|-------------------------5--6--5--8--------3--5--3--5--3--------1--3--3--
E|-------------------------------------------------------------------------

Stave 3:

E|--------------------------------------------------------------------------
B|--------------------------------------------------------------------------
G|--------------------------------------------------------------------------
D|--------------------------------------------------------------------------
A|--3--5--5--3--5--5--3--5--5--3--5--5--3--5--5--3--5--5--3--5--5--3--5--5--
E|--------------------------------------------------------------------------

Stave 4:

E|--------------------------------------
B|--------------------------------------
G|--------------------------------------
D|--8--7--5--7--5--3--5--3--2--3--2--0--
A|--------------------------------------
E|--------------------------------------

Stave 5:

E|--
B|--
G|--
D|--
A|--
E|--

http://www.guitartabcreator.com
Guitar Tab Creator is intended to store guitar tab created through the tool. It currently does not support in-line text editing. Any text you place in here will be lost. If you need to comment on your tab, please use the "Tab Notes" section located below.