white eyes

(/) Slide Up  (\) Slide Down  (h) Hammer On  (p) Pull Off  (b) Bend (r) Release (v) Vibrato


E|-----------
B|-----------
G|-----------
D|-----------
A|-----------
E|--9--7--5--



E|--------------
B|--------------
G|--------------
D|-----7--3--5--
A|--------------
E|--0-----------



E|-----------------------
B|-----------------------
G|-----------------------
D|-----5--3--5--2--3--0--
A|--0--------------------
E|-----------------------



E|--------------------------
B|--------------------------
G|--------------------------
D|--------------------------
A|--12--14--12--10--12--14--
E|--------------------------



E|-----------------
B|-----------------
G|-----------------
D|-----------------
A|--12--10--9--10--
E|-----------------



E|---------------
B|---------------
G|---------------
D|---------------
A|--10--9--7--7--
E|---------------



E|--
B|--
G|--
D|--
A|--
E|--



E|-----------
B|-----------
G|-----------
D|-----------
A|--5--0--0--
E|-----------



E|--------------------------------------------------------------------------------------
B|--------------------------------------------------------------------------------------
G|-----7--6--7-----7--6--7--------------------7-----6--7-----7-----6--7-----------------
D|-----------------------------7-----5--4-----------------------------------7-----4--5--
A|--5-----------5--------------------------5-----5--------5-----5-----------------------
E|--------------------------5-----7--------------------------------------5-----7--------



E|--
B|--
G|--
D|--
A|--
E|--
http://www.guitartabcreator.com
Guitar Tab Creator is intended to store guitar tab created through the tool. It currently does not support in-line text editing. Any text you place in here will be lost. If you need to comment on your tab, please use the "Tab Notes" section located below.