something in his head

(/) Slide Up  (\) Slide Down  (h) Hammer On  (p) Pull Off  (b) Bend (r) Release (v) Vibrato


E|------------------------------------------------------------------------
B|------------------------------------------------------------------------
G|------------------------------------------------------------------------
D|------------------------------------------------------------------------
A|------------------------------------------------------------------------
E|--12--13--10--12--8--10--7--8--5--7--12--13--10--12--8--10--7--8--5--7--



E|-------------------------------------------------
B|-------------------------------------------------
G|-------------------------------------------------
D|-------------------------------------------------
A|-------------------------------------------------
E|--12--13--0--10--12--0--8--10--0--7--8--0--5--7--



E|--------11--11-----11--11--------12--12-----15--
B|--------10--10-----10--10--------11--11-----14--
G|--------9---9------9---9---------10--10-----13--
D|--------8---8------8---8---------9---9------12--
A|------------------------------------------------
E|--0--0----------0----------0--0----------0------



E|---------------------------------------------
B|---------------------------------------------
G|---------------------------------------------
D|-------------------------12\0-10---12\0-10\0-
A|-------------------------12---10\0-12---10---
E|-16-17-17-17-17-17-17-17-12---10---12---10---



E|-----------------
B|------13------12-
G|------14------12-
D|-12\0-14-10\0-12-
A|-12------10------
E|-12------10------
http://www.guitartabcreator.com
Guitar Tab Creator is intended to store guitar tab created through the tool. It currently does not support in-line text editing. Any text you place in here will be lost. If you need to comment on your tab, please use the "Tab Notes" section located below.