shwet

(/) Slide Up  (\) Slide Down  (h) Hammer On  (p) Pull Off  (b) Bend (r) Release (v) Vibrato

Stave 1:

E|---------------------------------------------
B|---------------------------------------------
G|---------------------------------------------
D|--2--2--2--5--5--2--2--2--8--8--2--2--2--10--
A|--2--2--2--5--5--2--2--2--8--8--2--2--2--10--
E|--0--0--0--3--3--0--0--0--6--6--0--0--0--8---

Stave 2:

E|--------------------------------
B|--------------------------------
G|--------3-----------------------
D|--3--3--3--5--5--3--3--3--2--2--
A|--3--3--3--5--5--3--3--3--1--1--
E|--1--1--1--3--3--1--1--1--0--0--

Stave 3:

E|-----------------5--3--
B|-----------8--6--5--3--
G|--------6-----5--5--5--
D|-----7--------7--7--3--
A|--5-----------5--5--5--
E|-----------------------

http://www.guitartabcreator.com
Guitar Tab Creator is intended to store guitar tab created through the tool. It currently does not support in-line text editing. Any text you place in here will be lost. If you need to comment on your tab, please use the "Tab Notes" section located below.