sell out

(/) Slide Up  (\) Slide Down  (h) Hammer On  (p) Pull Off  (b) Bend (r) Release (v) Vibrato

E|--------------
B|--------------
G|--------------
D|--2--7--5--2--
A|--2--7--5--2--
E|--0--5--3--0--



E|--0--5--3--0--
B|--0--5--3--0--
G|--1--5--4--1--
D|--2--7--5--2--
A|--2--7--5--2--
E|--0--5--3--0--



E|--12--17--15--12--
B|--12--17--15--12--
G|--13--17--16--13--
D|--14--19--17--14--
A|--14--19--17--14--
E|------------------
http://www.guitartabcreator.com
Guitar Tab Creator is intended to store guitar tab created through the tool. It currently does not support in-line text editing. Any text you place in here will be lost. If you need to comment on your tab, please use the "Tab Notes" section located below.