seaside song not dolphin

(/) Slide Up  (\) Slide Down  (h) Hammer On  (p) Pull Off  (b) Bend (r) Release (v) Vibrato

E|--------------------------------------------------------------
B|--------------------------------------------------------------
G|--------------------------------------------------------------
D|--------------2--------------2--------------2--------------2--
A|--0--0--2--4-----0--0--2--4-----0--0--2--4-----0--0--2--4-----
E|--------------------------------------------------------------



E|--------------------------------------------------------------
B|--------------------------------------------------------------
G|--------------------------------------------------------------
D|--4--4--------2--4--4--------2--4--4--------2--4--4--------2--
A|--------2--4-----------2--4-----------2--4-----------2--4-----
E|--------------------------------------------------------------



E|--15--15--15--15--15--15--14--14--14--12--12--12--12--10--12--12--12--12--10--10--10--
B|--17--17--17--17--17--17--15--15--15--14--14--14--14--12--14--14--14--14--12--12--12--
G|--------------------------------------------------------------------------------------
D|--------------------------------------------------------------------------------------
A|--------------------------------------------------------------------------------------
E|--------------------------------------------------------------------------------------



E|--9---9---9---9---7--9---
B|--10--10--10--10--8--10--
G|-------------------------
D|-------------------------
A|-------------------------
E|-------------------------
http://www.guitartabcreator.com
Guitar Tab Creator is intended to store guitar tab created through the tool. It currently does not support in-line text editing. Any text you place in here will be lost. If you need to comment on your tab, please use the "Tab Notes" section located below.