Oliver Teal Takes his Place in the Circle of Cool

(/) Slide Up  (\) Slide Down  (h) Hammer On  (p) Pull Off  (b) Bend (r) Release (v) Vibrato
E|--------------------------------------------------------------
B|--------------------------------------------------------------
G|--------------------------------------------------------------
D|--------9--8--9--------9--8--9--------8--6--8--------8--6--8--
A|--6--6-----------6--6-----------8--8-----------8--8-----------
E|--------------------------------------------------------------



E|------------------------------------------------------------------
B|------------------------------------------------------------------
G|------------------------------------------------------------------
D|--------11--9--11--------11--9--11--------6--8--9--------8--6-----
A|--9--9-------------9--9-------------6--6-----------------------9--
E|---------------------------------------------------9--9-----------



E|-------------9--11--9--7--9--7--6--7--6--4--6--4--0--7--9--7--0--6--7--6--0--4--6--4--0--2--4--
B|----------9------------------------------------------------------------------------------------
G|------10---------------------------------------------------------------------------------------
D|--11-------------------------------------------------------------------------------------------
A|-----------------------------------------------------------------------------------------------
E|-----------------------------------------------------------------------------------------------



E|-----------7--9--7--6--7--6--4--6--4--2--4--2--0--6--7--6--0--4--6--4--0--2--4--2--0--0--2-----
B|--------7-----------------------------------------------------------------------------------2--
G|-----8-----------------------------------------------------------------------------------------
D|--9--------------------------------------------------------------------------------------------
A|-----------------------------------------------------------------------------------------------
E|-----------------------------------------------------------------------------------------------



E|--------------------------------------------------
B|--------------------------------------------------
G|--------------------------------------------------
D|--------------------------------------------------
A|--------------------------------------------------
E|--0--0--2--3--0--0--3--5--0--0--5--7--0--0--7--8--



E|--7--9--7--------2--6--6--
B|--7--7--7--7--9--2--7--7--
G|--8--8--8--9-----3--8--6--
D|--9--9--9--8--8--4--8--6--
A|--7--7--7--9--9--2--6--4--
E|--7--7--7--------2--6--4--



E|--7b14--16--14--16--14--16----------------------------
B|----------------------------7b14--16--14--16--14--16--
G|------------------------------------------------------
D|------------------------------------------------------
A|------------------------------------------------------
E|------------------------------------------------------
http://www.guitartabcreator.com
Guitar Tab Creator is intended to store guitar tab created through the tool. It currently does not support in-line text editing. Any text you place in here will be lost. If you need to comment on your tab, please use the "Tab Notes" section located below.