my soul

(/) Slide Up  (\) Slide Down  (h) Hammer On  (p) Pull Off  (b) Bend (r) Release (v) Vibrato


E|--------------------------------------------------------------------------------------------------
B|--------------------------------------------------------------------------------------------------
G|--------------------------------------------------------------------------------------------------
D|--------------------------------------------------------------------------------------------------
A|--5--7--7--5--7--7--5--7--5--7--7--5--7--7--5--7--5--7--7--5--7--7--5--7--5--7--7--5--7--7--5--7--
E|--------------------------------------------------------------------------------------------------



E|--5--5--5--3--3--3--7--7--7--5--5--5--
B|--5--5--5--5--5--5--8--8--8--6--6--6--
G|--5--5--5--5--5--5--9--9--9--7--7--7--
D|--7--7--7--5-----5--9--9--9--7--7--7--
A|--7--7--7--3--3--3--7--7--7--5--5--5--
E|--5--5--5-----------------------------
http://www.guitartabcreator.com
Guitar Tab Creator is intended to store guitar tab created through the tool. It currently does not support in-line text editing. Any text you place in here will be lost. If you need to comment on your tab, please use the "Tab Notes" section located below.