maestro

(/) Slide Up  (\) Slide Down  (h) Hammer On  (p) Pull Off  (b) Bend (r) Release (v) Vibrato


E|----------------------------------------------------------------------------------------------------
B|----------------------------------------------------------------------------------------------------
G|----------------------------------------------------------------------------------------------------
D|-------------11-11-11-11-----11-11------------------------------------------------------12----12----
A|-9-9-9-9-9-9-------------9-9-------9-9-------------11-11-11-11---11---11-11-11-11-11-11----11----11-
E|---------------------------------------9-9-9-9-9-9-------------9----9-------------------------------



E|---------------------------------------------------
B|---------------------------------------------------
G|-----7---7-----------------------------------------
D|-----------------7---7---------8---8-------11---11-
A|-5-5---5-------------------------------------------
E|-----------5-5-5---5---5-5-7-7---7---7-9-9----9----
http://www.guitartabcreator.com
Guitar Tab Creator is intended to store guitar tab created through the tool. It currently does not support in-line text editing. Any text you place in here will be lost. If you need to comment on your tab, please use the "Tab Notes" section located below.