How

(/) Slide Up  (\) Slide Down  (h) Hammer On  (p) Pull Off  (b) Bend (r) Release (v) Vibrato


E|--------------------------
B|--------------------------
G|--5--7--9--9--11--13--15--
D|--5--7--9--9--11--13--15--
A|--3--5--6--7--9---11--13--
E|--------------------------



E|--------------------------------------------------
B|--------------------------------------------------
G|--------------------------------------------------
D|--------------------------------------------------
A|--------------------------------------------------
E|--1--1--1--1--1--1--1/12--1--1--1--1--1--1--1--1--



E|----------------------------------------------------------------------------------------------------
B|----------------------------------------------------------------------------------------------------
G|----------------------------------------------------------------------------------------------------
D|--1-----1--1--------------1--1--1--------------1--1--1--1/5--5--5-----------------------------------
A|--1-----1--1--------------1--1--1--------------1--1--1--1-5--5--5--5--7--8--3--3--3--3--5--3--5--3--
E|--1--0--1--1--0--0--0--0--1--1--1--0--0--0--0--1--1--1--1-5--5--5--5--7--8--3--3--3--3--5--3--5--3--



E|--------------------------------------------------------------------------
B|------11------11------11------11------11------10------8------10------11\0-
G|---10------10------10------10------10------10------10-----10------10------
D|-8-------8-------8-------8-------8-------8-------8------8-------8---------
A|--------------------------------------------------------------------------
E|--------------------------------------------------------------------------



E|-------------8-6-5-6-5---5-------------------------------
B|-----------------------8---8-6-8-6-----------------------
G|-----------------------------------8-7-8-7-5-7-5---5-----
D|-1-1---------------------------------------------8---8-7-
A|-1-1-----------------------------------------------------
E|-1-1-0-0-0-0---------------------------------------------



E|--------------------------
B|-3-3-3-8--8--8--1-1-1-5-5-
G|-5-5-5-10-10-10-3-3-3-7-7-
D|-5-5-5-10-10-10-3-3-3-7-7-
A|-3-3-3-8--8--8--1-1-1-5-5-
E|--------------------------



E|-----------------------------------------------------------------
B|-------3-------3-------3-------3-------3-------3-------3-------1-
G|-------3-------3-------3-------3-------3-------3-------3-------2-
D|-------5-------3-------5-------3-------5-------3-------3-------3-
A|-3-5-6-6-3-5-6-5-3-5-6-6-3-5-6-5-3-5-6-6-3-5-6-5-0-1-3-3-0-1-3-3-
E|-----------------------------------------------------------------
http://www.guitartabcreator.com
Guitar Tab Creator is intended to store guitar tab created through the tool. It currently does not support in-line text editing. Any text you place in here will be lost. If you need to comment on your tab, please use the "Tab Notes" section located below.