Hiding the Secrets

(/) Slide Up  (\) Slide Down  (h) Hammer On  (p) Pull Off  (b) Bend (r) Release (v) Vibrato

E|------------------------------------------------------------------------------------
B|------------------------------------------------------------------------------------
G|------------------------------------------------------------------------------------
D|------------------------------------------------------------------------------------
A|------------------------------------------------------------------------------------
E|--11--9--9--7--9--9--11--9--11--12--11--9--7--11--9--9--7--9--9--11--9--11--11b--7--



E|---------------------------------------------------------------------------------------
B|---------------------------------------------------------------------------------------
G|---------------------------------------------------------------------------------------
D|---------------------------------------------------------------------------------------
A|---------------------------------------------------------------------------------------
E|--11--9--9--7--9--9--11--9--11--12--11--9--7--11--9--9--7--9--9--11--9--11--11--12--7--



E|---------------------------------------------------------------------------------------
B|---------------------------------------------------------------------------------------
G|---------------------------------------------------------------------------------------
D|---------------------------------------------------------------------------------------
A|--11--9--9--7--9--9--11--9--11--12--11--9--7--11--9--9--7--9--9--11--9--11--11--12--7--
E|---------------------------------------------------------------------------------------



E|---------------------------------------------------------------------------------------
B|---------------------------------------------------------------------------------------
G|---------------------------------------------------------------------------------------
D|---------------------------------------------------------------------------------------
A|---------------------------------------------------------------------------------------
E|--11--9--9--7--9--9--11--9--11--12--11--9--7--11--9--9--7--9--9--11--9--11--11--12--7--



E|--------------------------------------------------------------------------
B|--------------------------------------------------------------------------
G|--------------------------------------------------------------------------
D|--------------------------------------------------------------------------
A|--------------------------------------------------------------------------
E|--4--5--7--5--4--7--9--10--12--10--9--4--5--7--5--4--7--9--10--12--9--10--



E|---------------------------------------------------------------------------------------------
B|---------------------------------------------------------------------------------------------
G|---------------------------------------------------------------------------------------------
D|---------------------------------------------------------------------------------------------
A|---------------------------------------------------------------------------------------------
E|--7--7--9--10--12--12--10--9--4--4--5--7--5--4--7--7--9--10--12--10--9--7--4--4--5--7--5--4--



E|------------------------------------------------
B|------------------------------------------------
G|------------------------------------------------
D|------------------------------------------------
A|---------------------------7-----7--------------
E|--9--12--11--12--9--12--7-----6-----6--7--8--3--



E|-----------------------------------------------
B|-----------------------------------------------
G|-----------------------------------------------
D|-----------------------------------------------
A|-----------------------------------------------
E|--12--11--12--9--12--8--12--7--12--7--8--9--3--
http://www.guitartabcreator.com
Guitar Tab Creator is intended to store guitar tab created through the tool. It currently does not support in-line text editing. Any text you place in here will be lost. If you need to comment on your tab, please use the "Tab Notes" section located below.