going away

(/) Slide Up  (\) Slide Down  (h) Hammer On  (p) Pull Off  (b) Bend (r) Release (v) Vibrato


E|-------------------------------------------------------------------------------------------------
B|--------------20----------------------20------------------18----------------------17-------------
G|------17--------------17------17------------------17--------------17------17--------------17-----
D|--19------19------19------19------19------19--19------19------19------19------19------19---------
A|-------------------------------------------------------------------------------------------------
E|-------------------------------------------------------------------------------------------------



E|----------
B|--17--15--
G|--17--15--
D|--19--17--
A|----------
E|----------



E|--------------------------------------------------------------------------------------------------
B|--------------------------------------------------------------------------------------------------
G|--------5--------5--------5--------5--------5--------5--------5--------5-----------5--------5-----
D|-----7--------7--------7--------7--------7--------7--------7--------7-----------7--------7--------
A|--8--------8--------8--------7--------7--------7--------8--------8--------8--7--------7--------7--
E|--------------------------------------------------------------------------------------------------



E|-----------------------------------------------------------------------------------------------
B|-----------------------------------------------------------------------------------------------
G|--------5--------5-----5-----5--------5--------5-----5--------5--------5-----5--------5--------
D|-----7--------7--------------------7--------7--------------7--------7--------------7-----------
A|--8--------8--------8-----8-----7--------7--------7-----5--------5--------5-----5--------5-----
E|-----------------------------------------------------------------------------------------------



E|--------------------------------------------
B|--------6--6--5--5--------5--5--5--5--3--3--
G|--------7--7--5--5--------5--5--5--5--3--3--
D|--------7--7--5--5--------5--5--5--5--3--3--
A|--5--5--5--5--5--5--3--3--3--3--3--3--3--3--
E|--------------------------------------------
http://www.guitartabcreator.com
Guitar Tab Creator is intended to store guitar tab created through the tool. It currently does not support in-line text editing. Any text you place in here will be lost. If you need to comment on your tab, please use the "Tab Notes" section located below.