false widow

(/) Slide Up  (\) Slide Down  (h) Hammer On  (p) Pull Off  (b) Bend (r) Release (v) Vibrato

E|--------------------------------------------------------------------------------
B|--------------------------------------------------------------------------------
G|--------------------------------------------------------------------------------
D|--3--5--5--5--6--6--6--8--8--8--10--10--10--8--8--8--6--6--6--5--5--5--3--3--3--
A|--3--5--5--5--6--6--6--8--8--8--10--10--10--8--8--8--6--6--6--5--5--5--3--3--3--
E|--1--3--3--3--4--4--4--6--6--6--8---8---8---6--6--6--4--4--4--3--3--3--1--1--1--



E|-------------------8--10--11--10--8----------------------------------------------------------
B|----------8--9--8--------------------10--9--8--12--10--9----------13--16--13--12--13--12-----
G|------10------------------------------------------------------14-----------------------------
D|--10------------------------------------------------------13---------------------------------
A|---------------------------------------------------------------------------------------------
E|---------------------------------------------------------------------------------------------



E|--------------12--13--0--10--12--0--9--10--0--
B|--10--12--10----------------------------------
G|----------------------------------------------
D|----------------------------------------------
A|----------------------------------------------
E|----------------------------------------------



E|----------------------
B|----------------------
G|----------------------
D|--8--10--8--9--10--7--
A|--8--10--8--8--10--8--
E|--6--8---6--6--8---6--



E|--11--10--8----------------------
B|-------------12--9--8------------
G|-----------------------10--8--7--
D|---------------------------------
A|---------------------------------
E|---------------------------------



E|-----------------
B|-----------------
G|-----------------
D|--8--5--6--5--3--
A|--8--5--6--5--3--
E|--6--3--4--3--1--



E|-----6--5--
B|-----8--7--
G|-----9--8--
D|-----------
A|-----------
E|--0--------



E|-----
B|-----
G|-----
D|--3--
A|--3--
E|--1--
http://www.guitartabcreator.com
Guitar Tab Creator is intended to store guitar tab created through the tool. It currently does not support in-line text editing. Any text you place in here will be lost. If you need to comment on your tab, please use the "Tab Notes" section located below.