Evil Music

(/) Slide Up  (\) Slide Down  (h) Hammer On  (p) Pull Off  (b) Bend (r) Release (v) Vibrato

E|--------------------------
B|--------------------------
G|--------------------------
D|--------------------------
A|--------------------------
E|--0--0--0--0--0--0--0--0--



E|-----------
B|-----------
G|-----------
D|--------0--
A|--0--0--0--
E|--0--0--0--



E|----------------------
B|----------------------
G|----------------------
D|----------------------
A|--5/7--7--7--7--0--0--
E|--3-5--5--5--5--0--0--



E|-----
B|-----
G|-----
D|--2--
A|--2--
E|--0--



E|--------------
B|--------------
G|--------------
D|--------------
A|--5--7--8--0--
E|--3--5--6--0--



E|--------------------
B|--------------------
G|-----------------0--
D|--------2--3--5--0--
A|--0--5--2--3--5-----
E|--0--5--------------



E|--------------12b14--12b14--12--12b14--12--10--12--10--10--10--12b14--12--10--12--10--10--10--
B|----------------------------------------------------------------------------------------------
G|----------------------------------------------------------------------------------------------
D|----------------------------------------------------------------------------------------------
A|----------------------------------------------------------------------------------------------
E|--0--0--3--0----------------------------------------------------------------------------------



E|-----------6--6--------3-----3----------------------12--12--13--13--18--18--
B|-----------------6--6-----3-----3-----------11--11--------------------------
G|----------------------------------------------------------------------------
D|--2--2--2--------------------------2--2--2----------------------------------
A|--2--2--2--------------------------5--5--5----------------------------------
E|--0--0--0--------------------------3--3--3----------------------------------
http://www.guitartabcreator.com
Guitar Tab Creator is intended to store guitar tab created through the tool. It currently does not support in-line text editing. Any text you place in here will be lost. If you need to comment on your tab, please use the "Tab Notes" section located below.