difficultly

(/) Slide Up  (\) Slide Down  (h) Hammer On  (p) Pull Off  (b) Bend (r) Release (v) Vibrato


E|--------------------------------------------------------------------------------------
B|--------------------------------------------------5--5--5--5--5--------------------8--
G|--------------------------------------------------6--6--6--6--6--------------------8--
D|--------2-----2-----2-----2-----2-----2-----------6--6--6--6--6--------------------8--
A|--2--4-----4-----4-----4-----4-----4-----4--2--4--4--4--4--4--4--------4-----4--6--6--
E|-----------------------------------------------------------------4--6-----6-----------



E|--------------------6--------------------0--2--0--2--2--0--
B|--------------------6--------------------0-----------------
G|--------------------6--------------------0-----------------
D|--6--8--------------6--5--6--------------2-----------------
A|--------6--8--------6--------4--6--------2-----------------
E|--------------6--9--6--------------4--6--0-----------------



E|--16--18--20--16--18--20--16--18--20--16--18--20--16--18--20--16-----
B|---------------------------------------------------------------------
G|---------------------------------------------------------------------
D|---------------------------------------------------------------------
A|---------------------------------------------------------------------
E|---------------------------------------------------------------------



E|--15--16--18--15--16--18--15--16--18--15--16--18--15--16--18--15--
B|------------------------------------------------------------------
G|------------------------------------------------------------------
D|------------------------------------------------------------------
A|------------------------------------------------------------------
E|------------------------------------------------------------------



E|--11--13--15--11--13--15--11--13--15--11--13--15--11--13--15--11--
B|------------------------------------------------------------------
G|------------------------------------------------------------------
D|------------------------------------------------------------------
A|------------------------------------------------------------------
E|------------------------------------------------------------------



E|--13--15--16--13--15--16--15--16--13--15--16--13--15--16--13--
B|--------------------------------------------------------------
G|--------------------------------------------------------------
D|--------------------------------------------------------------
A|--------------------------------------------------------------
E|--------------------------------------------------------------



E|------19--19--19----------17--17--17--17--15--18--15--12--
B|------19--19--19----------17--17--17--17--15--15--15--13--
G|------19--19--19----------17--17--17--17--16--16--16--14--
D|------19--19--19----------17--17--17--17--17--15--15--14--
A|--17--------------17--15----------------------------------
E|----------------------------------------------------------
http://www.guitartabcreator.com
Guitar Tab Creator is intended to store guitar tab created through the tool. It currently does not support in-line text editing. Any text you place in here will be lost. If you need to comment on your tab, please use the "Tab Notes" section located below.