bosch bosch bogs bogs

(/) Slide Up  (\) Slide Down  (h) Hammer On  (p) Pull Off  (b) Bend (r) Release (v) Vibrato

E|--19--15--17------15------------------19--15--17------15--------------------------
B|--------------17------15--17--15------------------17------15--17--15--17--15------
G|----------------------------------16------------------------------------------16--
D|----------------------------------------------------------------------------------
A|----------------------------------------------------------------------------------
E|----------------------------------------------------------------------------------



E|--15--12--13----------12--------------15--12--13----------12--------------15--12--13------
B|--------------13--15------15--13--13--------------13--15------15--13--13--------------15--
G|------------------------------------------------------------------------------------------
D|------------------------------------------------------------------------------------------
A|------------------------------------------------------------------------------------------
E|------------------------------------------------------------------------------------------



E|--15--12--13------12------12--13------15--12--13--12------12----------12--12----------
B|--------------13------15----------15------------------13------13--15----------15--15--
G|--------------------------------------------------------------------------------------
D|--------------------------------------------------------------------------------------
A|--------------------------------------------------------------------------------------
E|--------------------------------------------------------------------------------------



E|------------------------------------------------------------------------------------------
B|------------------------------------------------------------------------------------------
G|------------------------------------------------------------------------------------------
D|------------------15------14------12------------------15--15------14------12--------------
A|----------------------15------15------15--13--12--------------15------15------15--13--12--
E|--17--17--15--13----------------------------------13--------------------------------------



E|--------------------------------------------------------------------------
B|--------------------------------------------------------------------------
G|--------------------------------------------------------------------------
D|--------------------------------------------------------------------------
A|--13--13--13--12--10--8--10--12--10--10--13--13--13--12--10--8--10--12b8--
E|--------------------------------------------------------------------------



E|----------------------------------------------------------------
B|------------------------------------------------10--12--10--12--
G|---------------------10-----------------10--12------------------
D|-------------10--12-------------10--12--------------------------
A|---------12-----------------------------------------------------
E|--10b10------------------10b10----------------------------------



E|-----------------------------------------------------10--12--13--
B|-----------------------------10--12--10------10--12--------------
G|---------------------10--12--------------12----------------------
D|-------------10--12----------------------------------------------
A|---------12------------------------------------------------------
E|--10b10----------------------------------------------------------



E|--20--18--17--20--18--17--20--18--17--20--18--17--21--20--18--20--18--17--18--17--15--18-----
B|---------------------------------------------------------------------------------------------
G|---------------------------------------------------------------------------------------------
D|---------------------------------------------------------------------------------------------
A|---------------------------------------------------------------------------------------------
E|---------------------------------------------------------------------------------------------



E|---------20----------------------------------------------------------------------
B|--19b21------19--19--17--19b21--19-----------------------------------------------
G|---------------------------------------------------------------------------------
D|------------------------------------7--5--5--5--3--3--3--2--2--0--0--0-----------
A|------------------------------------------------------------------------3--3--3--
E|---------------------------------------------------------------------------------



E|--------------------------------------------------------------------------
B|--------------------------------------------------------------------------
G|--------------------------------------------------------------------------
D|--------------------------------------------------------------------------
A|--------------------------------------------------------------------------
E|--3--0--0--0--3--0--0--0--3--0--5--0--3--0--0--0--3--0--0--0--3--0--5--0--



E|----------------------------------------------
B|----------------------------------------------
G|----------------------------------------------
D|--5--5b7--7--7--7--7--5b7--7--7--7--5--7--10--
A|--5--5-7--7--7--7--7--5-7--7--7--7--5--7--10--
E|--3--3-5--5--5--5--5--3-5--5--5--5--3--5--8---



E|--
B|--
G|--
D|--
A|--
E|--
http://www.guitartabcreator.com
Guitar Tab Creator is intended to store guitar tab created through the tool. It currently does not support in-line text editing. Any text you place in here will be lost. If you need to comment on your tab, please use the "Tab Notes" section located below.