aaaaaaaal my friends are deead

(/) Slide Up  (\) Slide Down  (h) Hammer On  (p) Pull Off  (b) Bend (r) Release (v) Vibrato


E|-----------------
B|-----------------
G|-----------------
D|--7--5--2--3--5--
A|--7--5--2--3--5--
E|--5--3--0--1--3--



E|-----------------------------------------------------------------------------------------------
B|-----------------------------------------------------------------------------------------------
G|-----------------------------------------------------------------------------------------------
D|-----------------------------------------------------------------------------------------------
A|-----------------------------------------------------------------------------------------------
E|--2--0--0--2--0--0--2--0--2--0--3--0--5--0--0--5--0--0--7--0--5--0--3--0--2--0--0--2--0--0-----



E|--------------------------------------------
B|--------------------------------------------
G|--------------------------------------------
D|--------------------------------------------
A|--------------------------------------------
E|--3--0--2--0--2--0--0--2--0--0--3--0--2--0--



E|--------------7---------------------
B|--7--7--7--7--7--7--7--7--7--9--10--
G|--7--7--7--7--7--7--7--7--7--9--10--
D|--7--7--7--7--7--7--7--7--7--9--10--
A|--5--5--5--5--5--5--5--5--5--7--8---
E|------------------------------------



E|-----
B|-----
G|-----
D|-----
A|-----
E|--0--



E|--------------------------------------------------------
B|--------------------------------------------------------
G|--------------------------------------------------------
D|--------------------------------------------------------
A|--------------------------------------------------------
E|--2--0--0--2--0--0--2--0--2--0--2--0--2--0--0--2--0--0--
http://www.guitartabcreator.com
Guitar Tab Creator is intended to store guitar tab created through the tool. It currently does not support in-line text editing. Any text you place in here will be lost. If you need to comment on your tab, please use the "Tab Notes" section located below.