Attack

(/) Slide Up  (\) Slide Down  (h) Hammer On  (p) Pull Off  (b) Bend (r) Release (v) Vibrato


INTRO
Eb|-------------------------------------- Eb|---
Bb|-------------------------------------- Bb|-3-
Gb|-------------------------------------- Gb|-2-
Db|-------------------------------------- Db|-0-
Ab|-------------------------------------- Ab|-0-
Db|-0-0-3/6-5-0-3h5p3-0-0-3p5h3-3-0-1/3-2 Db|-0-

MAIN RIFF
Eb|-------------------------------------- Eb|------------------------------
Bb|-------------------------------------- Bb|------------------------------
Gb|-------------------------------------- Gb|------------------------------
Db|-------------------------------------- 3x Db|------------------------------ 1x overall=8x
Ab|-0-0-3/6-5-0-3h5p3-0-0-3p5h3-3-0-1/3-2 Ab|-0-0-3/6-5-0-3h5p3-0-3-3-3-12\
Db|-0-0-3/6-5-0-3h5p3-0-0-3p5h3-3-0-1/3-2 Db|-0-0-3/6-5-0-3h5p3-0-3-3-3-12\

VERSE RIFF
Eb|----------------------------------------------------------------------------
Bb|----------------------------------------------------------------------------
Gb|----------------------------------------------------------------------------
Db|-----------------------------------3-1-----------------------------------1-0
Ab|---------------------------------0-3-1---------------------------------0-1-0
Db|-0-00-3/6-5-0-3h5p3-1-0-00-3/6-5-0-3-1-0-00-3/6-5-0-3h5p3-1-0-00-3/6-5-0-1-0
* ** * * ** * * ** * * ** *
CHORUS
Eb|---------------------------------------------------------
Bb|---------------------------------------------------------
Gb|---------------------------------------------------------
Db|-7-7-7-7--7-7--5-5-5-5-------7-7-7-7--7-7--5-5-5-5-2-2-2-
Ab|-5-5-5-5--5-5--3-3-3-2-0-1-0-5-5-5-5--5-5--3-3-3-2-0-0-0-
Db|-0-0-0-0--0-0----------0-1-0-0-0-0-0--0-0----------------

http://www.guitartabcreator.com
Guitar Tab Creator is intended to store guitar tab created through the tool. It currently does not support in-line text editing. Any text you place in here will be lost. If you need to comment on your tab, please use the "Tab Notes" section located below.