rich one day bass

(/) Slide Up  (\) Slide Down  (h) Hammer On  (p) Pull Off  (b) Bend (r) Release (v) Vibrato


E|-------------------------------------------------------------------------
B|-------------------------------------------------------------------------
G|-------------------------------------------------------------------------
D|-------7---9---7-------7---9---7-----------------------------------------
A|---7---------------7-------------------7---9---7---5---7---7/9---7-------
E|-----------------------------------7-------------------------------------



E|-------------------------------------------------------------------------------
B|-------------------------------------------------------------------------------
G|-------------------------------------------------------------------------------
D|-------------------------------------------------------------------------------
A|-------3---5---3-------5---7---5---7---5-------3---5---3-------5---7---5---7---
E|---3---------------5-----------------------3---------------5-------------------



E|-----------------
B|-----------------
G|-----------------
D|-----------------
A|-----------------
E|-2-2-2-2-2-2-2-2-



E|-
B|-
G|-
D|-
A|-
E|-
http://www.guitartabcreator.com
Guitar Tab Creator is intended to store guitar tab created through the tool. It currently does not support in-line text editing. Any text you place in here will be lost. If you need to comment on your tab, please use the "Tab Notes" section located below.