beach song bass

(/) Slide Up  (\) Slide Down  (h) Hammer On  (p) Pull Off  (b) Bend (r) Release (v) Vibrato


E|---------------------------------------------------------------------------
B|---------------------------------------------------------------------------
G|---------------------------------------------------------------------------
D|-------5-7-------5-7-------3-5-------3-5-2-------5-7-------5-7-------3-5---
A|---5-7-------5-7-------3-5-------3-5---------5-7-------5-7-------3-5-------
E|-5---------5---------3---------3-----------5---------5---------3---------2-



E|---------------------------------------
B|---------------------------------------
G|---------------------------------------
D|-------3-5-------5-7/9-9-9-9-9-9-9-9-9-
A|---3-5-------5-7-----------------------
E|-3---------5---------------------------



E|---------------------------------------------------------------------
B|---------------------------------------------------------------------
G|---------------------------------------------------------------------
D|---------------------------------------------------------------------
A|---5-7-5---5-7-5---3-5-3---3-5-3---5-7-5---5-7-5---3-5-3/9-9-9-9-7-5\
E|-5-------5-------3-------3-------5-------5-------3-------------------
http://www.guitartabcreator.com
Guitar Tab Creator is intended to store guitar tab created through the tool. It currently does not support in-line text editing. Any text you place in here will be lost. If you need to comment on your tab, please use the "Tab Notes" section located below.