First...

(/) Slide Up  (\) Slide Down  (h) Hammer On  (p) Pull Off  (b) Bend (r) Release (v) Vibrato


E|--------------------------|-----------------------------|--
B|--7--7--7--7--7--7--7--7--|--7--7--7--7--7--7--7--7--7--|--
G|--------------------------|-----------------------------|--
D|--------------------------|-----------------------------|--
A|--------------------------|-----------------------------|--
E|--5-----------------------|--------------5-----5--------|--



E|--------------------------|-----------------------------|--
B|--6--6--6--6--6--6--6--6--|--6--6--6--6--6--6--6--6--6--|--
G|--------------------------|-----------------------------|--
D|--------------------------|-----------------------------|--
A|--------------------------|-----------------------------|--
E|--5-----------------------|--------------5-----5--------|--



E|--------------------------|-----------------------------|--
B|--5--5--5--5--5--5--5--5--|--5--5--5--5--5--5--5--5--5--|--
G|--------------------------|-----------------------------|--
D|--------------------------|-----------------------------|--
A|--------------------------|-----------------------------|--
E|--3-----------------------|--------------3-----3--------|--



E|--------------------------|--------------------------|--|--
B|--4--4--4--4--4--4--4--4--|--4--4--4--4--4--4--4--4--|--|--
G|--------------------------|--------------------------|--|--
D|--------------------------|--------------------------|--|--
A|--------------------------|--------------3-----3-----|--|--
E|--3-----------------------|--------------------------|--|--



E|--
B|--
G|--
D|--
A|--
E|--
http://www.guitartabcreator.com
Guitar Tab Creator is intended to store guitar tab created through the tool. It currently does not support in-line text editing. Any text you place in here will be lost. If you need to comment on your tab, please use the "Tab Notes" section located below.