Shatner

(/) Slide Up  (\) Slide Down  (h) Hammer On  (p) Pull Off  (b) Bend (r) Release (v) Vibrato


E|-----------------|------------------------|------------------------------------------
B|-----------------|------------------------|------------------------------------------
G|-----------------|------------------------|------------------------------------------
D|-----------------|------------------------|------------------------------------------
A|-----------------|------------------------|-------------4--5--6-------------4--5--6--
E|--6--------------|--16--16--16--16--16\2--|--6\0--4--6-----------6\0--4--6-----------



E|---------------------------------------------|--------------------------------------------------|--
B|---------------------------------------------|--------------------------------------------------|--
G|---------------------------------------------|--------------------------------------------------|--
D|---------------------------------------------|--------------------------------------------------|--
A|-------------4--5--6-------4--------4--5--6--|--6--6--------------------3--6--6--------------3--|--
E|--6\0--4--6-----------6\0-----6--6-----------|--------3--3--4--4--6--6-----------3--3--4--6-----|--



E|---------------------------------------------|--------------------------------------------------
B|---------------------------------------------|--------------------------------------------------
G|---------------------------------------------|--------------------------------------------------
D|---------------------------------------------|--------------------------------------------------
A|-------------4--5--6-------4--------4--5--6--|--8--8--8--8--8--8--------------------------------
E|--6\0--4--6-----------6\0-----6--6-----------|--------------------2--2--3--3--3--3--6--6--6--6--



E|-------------------------------------|-----------------------------------------
B|-------------------------------------|-----------------------------------------
G|-------------------------------------|-----------------------------------------
D|-------------------------------------|-----------------------------------------
A|-------------------------------------|--1--1--3--4--4--------------------6-----
E|--6--6--6--6--6--6--6--6--6--6--6\0--|-----------------8--9--9--9--9--9-----9--



E|--------------------------------------|--------------------------------------
B|--------------------------------------|--------------------------------------
G|--------------------------------------|--------------------------------------
D|--------------------------------------|--------------------------------------
A|--1--1--3--4--4--------------1--4--4--|--------------------------------------
E|-----------------0--1--2--4-----------|--3--3--3--3--3--3--2--2--2--2--2--2--



E|--------------------------------------------|-----------------------------------------------
B|--------------------------------------------|-----------------------------------------------
G|--------------------------------------------|-----------------------------------------------
D|--------------------------------------------|-----------------------------------------------
A|--------------------------------------------|--------------------------6--6--6--6--------3--
E|--3--3--3--3--3--3--4--4--4--4--4--4--4--4--|--6--6--4--4--4--4--6--8--------------4--6-----



E|-------------------------------------------------|-----------------------|--
B|-------------------------------------------------|-----------------------|--
G|-------------------------------------------------|-----------------------|--
D|------------------------------------8------------|-----------------------|--
A|-----------------------6--6--8--10-----10--8--6--|--------------------6--|--
E|--6--6--4--4--4--6--8----------------------------|--6--6--4--4--4--4-----|--



E|---------------------------
B|---------------------------
G|-----------------------18--
D|---------------------------
A|---------------------------
E|--6--4--2--13--16--18------
http://www.guitartabcreator.com
Guitar Tab Creator is intended to store guitar tab created through the tool. It currently does not support in-line text editing. Any text you place in here will be lost. If you need to comment on your tab, please use the "Tab Notes" section located below.