Desert Yeti

(/) Slide Up  (\) Slide Down  (h) Hammer On  (p) Pull Off  (b) Bend (r) Release (v) Vibrato

E|------------------------|--------------------------------|--
B|------------------------|--------------------------------|--
G|------------------------|--------------------------------|--
D|------------------------|--------------------------------|--
A|-------2--2p0-----5-----|--------2--2p0-----5--5---------|--
E|--0h2----------2-----7--|--0--2----------2--------7p5h7--|--



E|--------------------------------------------------------------------------------------------------
B|--------------------------------------------------------------------------------------------------
G|--------------------------------------------------------------------------------------------------
D|--------------------------------------------------------------------------------------------------
A|--------------------5--5--5--5--------------------5--5--5--5--------------------------------------
E|--7--7--7--7--7--7--------------7--7--7--7--7--7--------------5--5--5--5--5--5--5--6--7--7--7--7--



E|----------------|--------------|-----------------------------------|--
B|----------------|--------------|-----------------------------------|--
G|----------------|--------------|-----------------------------------|--
D|----------------|--------------|-----------------------------------|--
A|-------7--------|-----------4--|--5--7------------------------2h5--|--
E|--7h9-----9--5--|--7--7--7-----|--------5h7--7--7--7--7--2h5-------|--



E|-------------------------------|--
B|-------------------------------|--
G|-------------------------------|--
D|--5--7-------------------------|--
A|-------------------------------|--
E|--------5h7--7--7--7--7--7--7--|--



E|-------------------------------------------------------------------------------------------------
B|-------------------------------------------------------------------------------------------------
G|-------------------------------------------------------------------------------------------------
D|-------------------------------------------------7-----------------------------------------------
A|--------------------5--5--5--5--------------7h9-----9--7--5--------------------------------------
E|--7--7--7--7--7--7--------------7--7--7--7-------------------5--5--5--5--5--5--5--6--7--7--7--7--



E|----------------
B|----------------
G|----------------
D|----------------
A|-------7--------
E|--7h9-----9--5--
http://www.guitartabcreator.com
Guitar Tab Creator is intended to store guitar tab created through the tool. It currently does not support in-line text editing. Any text you place in here will be lost. If you need to comment on your tab, please use the "Tab Notes" section located below.