Cocoa Puffs

(/) Slide Up  (\) Slide Down  (h) Hammer On  (p) Pull Off  (b) Bend (r) Release (v) Vibrato

E|-----------------------------------------------------------------------------------------
B|-----------------------------------------------------------------------------------------
G|-----------------------------------------------------------------------------------------
D|---------------6----7--9--------------------------------------6----7--9------------------
A|------------------------------------------11---------------------------------------------
E|--9\0----0--7---------------9--9----7--8------9--9------0--7---------------9--9----7--8--



E|---------------------------------------------------------------------------------------------------
B|---------------------------------------------------------------------------------------------------
G|---------------------------------------------------------------------------------------------------
D|----------------------6----------------------------------------------6-----------------------------
A|--11-----------------------7--9------------------11-----------------------7--9---------------------
E|------9--9------0--7-------------9--9------7--8------9--9------0--7---------------9--9----7--8-----



E|-----|-----------|-------------------------------------------|-----------------------
B|-----|-----------|-------------------------------------------|-----------------------
G|-----|-----------|-------------------------------------------|-----------------------
D|-----|-----------|-------------------------------------------|-----------------------
A|-----|-----------|--11------------------11-------------------|--11-------------------
E|--9--|--7--7--8--|------9--9------7--8------9--9----7--7--6--|------9--9----7--7--8--



E|-----------------------|-----------------------|-----------------------|------------------
B|-----------------------|-----------------------|-----------------------|------------------
G|-----------------------|-----------------------|-----------------------|------------------
D|-----------------------|-----------------------|-----------------------|------------------
A|--11-------------------|-----11----------------|--11-------------------|--11--------------
E|------9--9----5--4--2--|--0------9----7--7--8--|------9--9----7--7--6--|------9--7--7--8--



E|---------------------|---------------------------------------------|--
B|---------------------|---------------------------------------------|--
G|---------------------|---------------------------------------------|--
D|---------------------|---------------------------------------------|--
A|--11-----------------|----------------------4--4----0--4--6--7--6--|--
E|------9----9----9\0--|--5--5------4--4-----------------------------|--



E|------------------------------------------------|-------------------------------------------
B|------------------------------------------------|-------------------------------------------
G|------------------------------------------------|-------------------------------------------
D|------------------------------------------------|-------------------------------------------
A|----------------------4--4--0--4----4--0--4--4--|----------------------4--4--0--4--7--8--7--
E|--5--5------4--4--------------------------------|--5--5------4--4---------------------------



E|----------------------------------------------------------------------|--
B|----------------------------------------------------------------------|--
G|----------------------------------------------------------------------|--
D|----------------------------------------------------------------------|--
A|----------------------4--4--4--4--4--4--4--4--4--4--4--4--4--4--4--4--|--
E|--5--5------4--4------------------------------------------------------|--



E|-------------------------------------------------------|---------------------------------
B|-------------------------------------------------------|---------------------------------
G|-------------------------------------------------------|---------------------------------
D|-------------------------4-----------------------------|-------------------------4-------
A|--------4--7----------6-------4--4--2------------------|--------4--7----------6----------
E|--5--5----------4--4-------------------4------0--2--4--|--5--5----------4--4----------2--



E|-------------------------------|-----------------------------------------|--------------
B|-------------------------------|-----------------------------------------|--------------
G|-------------------------------|-----------------------------------------|--------------
D|-------------------------------|-----------------------------------------|--------------
A|-------------------------------|---------------6--7----------------4-----|--7--7--6--9--
E|--9----5----7------0--0--2--2--|--9------0--9--------5----0--5--4-----7--|--------------



E|--------------
B|--------------
G|--------------
D|--------------
A|--------------
E|--0--0--2--2--
http://www.guitartabcreator.com
Guitar Tab Creator is intended to store guitar tab created through the tool. It currently does not support in-line text editing. Any text you place in here will be lost. If you need to comment on your tab, please use the "Tab Notes" section located below.